>
 >
The Greatest Fall (Of All Time)

The Greatest Fall (Of All Time) Guitar Tabs

Matchbook Romance - The Greatest Fall (Of All Time) chords, tabs, tablatures, lyrics

Guitar lessons | Add/correct | Request | Top 50 tabs Artists:  A B C D E F G H I J K L M N O P Q R S T U V W X Y Z 0-9

The Greatest Fall (Of All Time) Guitar Tabs – Matchbook Romance

CD, Sheet music, Poster

Do you like The Greatest Fall (Of All Time)? Share with your friends now
Tabs
i dont know why people dont tab this band...but there great..so heres the first tab




Guitar 1 

Intro 
e---------------------0h4-0~- 
B-10/9~-5h7-7-5h7-4-5-------- 
G---------------------------- 
D---------------------------- 
A---------------------------- 
E---------------------------- 

Verse 1 
e--------------------------- 
B--7-7-7----7---9-9-9----9-- 
G-9-9-9--9-9-9-9-9-9--9-9-9- 
D--------------------------- 
A--------------------------- 
E--------------------------- 

Verse 1 Continued 
e----------------------------------- 
B--7-7-7----7---9-9-10p9--10p9----7- 
G-9-9-9--9-9-9-9-9------9-----9-9--- 
D----------------------------------- *2x 
A----------------------------------- 
E----------------------------------- 

* Second Ending 
e--------------------------------------- 
B--7-7-7----7---9-9-9----9--7~-7~-7~-7~- 
G-9-9-9--9-9-9-9-9-9--9-9-9--9~-9~-9~-9~ 
D--------------------------------------- 
A--------------------------------------- 
E--------------------------------------- 

Chorus 
e------------ 
B------------ 
G-9-13-14-14- 
D-x--x--x--x- 
A-7-11-12-12- 
E------------ 

Chorus Continued 
e---------------------------------------- 
B---------------------------------------- 
G-9-9\8/11-13-9\8/11-14-9\8/11-14-9\8/11- 
D-x-x\x/x---x-x\x/x---x-x\x/x---x-x\x/x-- 
A-7-7\6/9--11-7\6/9--12-7\6/9--12-7\6/9-- 
E---------------------------------------- 

Verse 2 
e------|----------------|---------- 
B------|----------------|-7~-7~-7~- 
G------|-4-2-4-9-4-2-4--|--9~-9~-9~ 
D-11~7-|-4-2-4-9-4-2-4--|---------- 
A-x--x-|-2-0-2-7-2-0-2--|---------- 
E-9~-5-|----------------|---------- 
. . . . . . . 

Chorus 
e---------------------------------------- 
B---------------------------------------- 
G-9-9\8/11-13-9\8/11-14-9\8/11-14-9\8/11- 
D-x-x\x/x---x-x\x/x---x-x\x/x---x-x\x/x-- 2x 
A-7-7\6/9--11-7\6/9--12-7\6/9--12-7\6/9-- 
E---------------------------------------- 

Bridge 
e------------------- 
B------------------- 
G-6-6-6-66-6-6-6666- 
D-6-6-6-66-6-6-6666- 8x 
A-4-4-4-44-4-4-4444- 
E------------------- 

Bridge 
e---------------------------------- 
B----7~-7~-9~-10-9~-7~-7~-7~-10-9~- 
G-4~--9~-9~-9~-------9~-9~-9~------ 
D-x-------------------------------- 
A-2~------------------------------- 
E---------------------------------- 

Bridge Continued 
e----------------------- 
B----6~----------------- 
G----6~----------9\8/11- 
D-2~-4~-7~-99999-x\x/x-- 
A-2~----7~-99999-7\6/9-- 
E-0~----5~-77777-------- 
..... 

Chorus 
e---------------------------------------- 
B---------------------------------------- 
G-9-9\8/11-13-9\8/11-14-9\8/11-14-9\8/11- 
D-x-x\x/x---x-x\x/x---x-x\x/x---x-x\x/x-- 2x 
A-7-7\6/9--11-7\6/9--12-7\6/9--12-7\6/9-- 
E---------------------------------------- 

Outro 
e---------------------------------------------- 
B---------------------------------------------- 
G-6-6-6-66-6-6-6666-4-4-4-44-4-4-4444-14~11~13~ 
D-6-6-6-66-6-6-6666-4-4-4-44-4-4-4444-x--x--x-- 
A-4-4-4-44-4-4-4444-2-2-2-22-2-2-2222-12~9~-11~ 
E---------------------------------------------- 


Guitar 2 

Intro 
e------------ 
B------------ 
G---8h9--8h9- 
D--9----9---- 8x 
A-7---------- 
E------------ 

Verse 1 
e---------------------- 
B---------------------- 
G---8h9--8h9--8h9--8h9- 
D--9----9----9----9---- 7x 
A-7-------------------- 
E---------------------- 

Verse 1 Continued 
e---------- 
B---------- 
G---8-98-8- 
D--9-9--9-- 6x 
A-7-------- 
E---------- 

Chorus 
e----------- 
B----------- 
G---6------- 
D-2-6-7-7/9- 2x 
A-2-4-7-7/9- 
E-0---5-5/7- 

Verse 2 Intro 
e------------------------- 
B------------------------- 
G-99\8/9-9-99\8\44/99\8/9- 
D-xx\x/x-x-xx\x\xx/xx\x/x- 
A-77\6/7-7-77\6\22/77\6/7- 
E------------------------- 

Verse 2 
e------------------ 
B------------------ 
G---9--8-9--9--8-9- 
D-9999999999999999- 3x 
A---7--7-7--7--7-7- 
E------------------ 
.. .. . .. .. . 

Verse 2 Continued 
e--------------- |---------- 
B--------------- |---------- 
G-999-98-999-98- |---8-98-8- 
D-999-99-999-99- 4x|--9-9--9-- 4x 
A-777-77-777-77- |-7-------- 
E--------------- |---------- 

Chorus 
e----------- 
B----------- 
G---6------- 
D-2-6-7-7/9- 2x 
A-2-4-7-7/9- 
E-0---5-5/7- 

Bridge 
e----------------- |----------------------- 
B----------------- |----------------------- 
G-6-6-6-6-6-6-6-6- |-6/9-9-9-9/111112121212 
D-6-6-6-6-6-6-6-6- 3x|-x/x-x-x-x/x-x-x-x-x-x- 
A-4-4-4-4-4-4-4-4- |-4/7-7-7-7/9-9-10101010 
E----------------- |----------------------- 

Bridge Continued 
e----------------------- |------------------------- 
B----------------------- |------------------------- 
G-6-6-6-6/9\6-6-12121212 |-9-9-9-9/11-11-111111119~ 
D-x-x-x-x/x\x-x-x-x-x-x- 3x|-x-x-x-x/x--x--x-x-x-x-x- 
A-4-4-4-4/7\4-4-10101010 |-7-7-7-7/9--9--9-9-9-9-7~ 
E----------------------- |------------------------- 

Chorus Intro 
e----------------|----------- 
B----------------|----------- 
G----6~----------|---6------- 
D-2~-6~-7~-99999-|-2-6-7-7/9- 2x 
A-2~-4~-7~-99999-|-2-4-7-7/9- 
E-0~----5~-77777-|-0---5-5/7- 
..... 
Outro 
e----------------------------------------- 
B----------------------------------------- 
G-1313131313131313\1111111111111111\9~8/9~ 
D-x-x-x-x-x-x-x-x-\x-x-x-x-x-x-x-x-\x-x/x- 
A-1111111111111111\9-9-9-9-9-9-9-9-\7~6/7~ 
E-----------------------------------------





Comments


Popular Matchbook Romance tabs & chords
Monsters 2 Bass Tabs
The Greatest Fall Bass Tabs
Fiction Tabs
Monsters Tabs
Monsters 3 Tabs
Playing For Keeps 1 Tabs
Stories And Alibis Tabs
The Greatest Fall Tabs
Tiger Lily 2 Tabs
Hidden Track Ukulele


Song lyrics



↑ Back to top | Tablatures and chords are parodies/interpretations of the original songs. You may use it for private study, scholarship, research or language learning purposes only
© 2014 AZChords.com Contact us | Privacy policy | DMCA | Add/correct tabs | Request tabs | Top 50 tabs