» » »

Matchbook Romance, Stories And Alibis Tabs (ver.1)

Artists:  A B C D E F G H I J K L M N O P Q R S T U V W X Y Z # 

Stories And Alibis Tabs (ver.1)

Matchbook Romance Tabs
 Rating:
4/5 (4 votes)
Stories And Alibis lessons Tabs too difficult? Try these video lessons and learn fast
1
                reapeat 2x                          repeat 2x

g------------------------------|------------8-8---------6-5----|
D---------10-10------------6---|--------6-6---------6-6--------|   
A-----8-8-------------8-8----9-|----4-4---------4-4------------|    
E-6-6-------------6-6----------|-------------------------------|



g-------6-----------------------|
D-8-6-4-6-3---------------------|  figure out the strumming 
A-8-6-4-4-3---------------------|
E-6-4-2---1---------------------|


Thats all i've figured out.......MBR kicks ass
            
Submit corrections

comments powered by Disqus
↑ Back to top | Matchbook Romance Tabs for Stories And Alibis. Lyrics for acoustic guitar and electric guitar. 1 Tablatures and chords are parodies/interpretations of the original songs. You may use it for private study, scholarship, research or language learning purposes only