>
 >
Stay Tonight

Stay Tonight Guitar Tabs

Matchbook Romance - Stay Tonight chords, tabs, tablatures, lyrics

Guitar lessons | Add/correct | Request | Top 50 tabs Artists:  A B C D E F G H I J K L M N O P Q R S T U V W X Y Z 0-9

Stay Tonight Guitar Tabs – Matchbook Romance

CD, Sheet music, Poster

Do you like Stay Tonight? Share with your friends now
ChordsTabsUkulele
Tuning: drop d

Unfortunately i was to lazy to write all the chords in so i only wrote the chord
progressions so follow it by ear :P

intro thing:
guitar 1
e|----------------------------------------------|
B|----------------------------------------------|
G|----------------------------------------------|
D|--13/1----------------------------------------|
A|--13/1----------------------------------------|
E|--13/1----------------------------------------|

guitar 2
 fades in
e|----------------------------------------------|
B|----------------------------------------------|
G|--8-7---8-7---8p7-----------------------------|
D|----------------------------------------------|
A|----------------------------------------------|
E|----------------------------------------------| x2

continued:

guitar 1

e|----------------------------------------------|
B|----------------------------------------------|
G|----------------------------------------------|
D|--1--------10--------6----8-------------------|
A|--1--------10--------6----8-------------------|
E|--1--------10--------6----8-------------------|

guitar 2

e|----------------------------------------------|
B|----------------------------------------------|
G|--77-88--77-88--77-88-------------------------|
D|--88-88--88-88--88-88-------------------------|
A|--66-66--66-66--66-66-------------------------|
E|----------------------------------------------|   x6

pre verse: 

guitar 1

e|----------------------------------------------|
B|----------------------------------------------|
G|----------------------------------3-----------|
D|--1-------------------------------x-----------|
A|--1---------------------------1-1-1-----------|
E|--1---------------------------1-1-------------|
                                . .
guitar 2

e|----------------------------------------------|
B|----------------------------------------------|
G|--88888---88888---88888---77777---88-77-88-7--|
D|--88888---88888---88888---88888---88-88-88-8--|
A|--66666---66666---66666---66666---66-66-66-6--|
E|----------------------------------------------|


verse:

guitar 1

e|----------------------------------------------|
B|----------------------------------------------|
G|----------------------------------------------|
D|--10---6---10---6---8---10---12---------------|
A|--10---6---10---6---8---10---12---------------|
E|--10---6---10---6---8---10---12---------------|
    ..   .   ..               
guitar 2

e|----------------------------------------------|
B|----------------------------------------------|
G|--88888---88888---88888---88888---88-77-88-7--|
D|--88888---88888---88888---88888---88-88-88-8--|
A|--66666---66666---66666---66666---66-66-66-6--|
E|----------------------------------------------| lots

e|----------------------------------------------|
B|----------------------------------------------|
G|--8------10----12-12-13-12-13-----------------|
D|--8------10----12-12-13-13-13-----------------|
A|--6------8 ----10-11-11-11-11-----------------|
E|----------------------------------------------|

chorus:

guitar 1

e|----------------------------------------------|
B|----------------------------------------------|
G|----------------------------------------------|
D|--1--------10--------6----8-------------------|
A|--1--------10--------6----8-------------------|
E|--1--------10--------6----8-------------------|

guitar 2

e|----------------------------------------------|
B|----------------------------------------------|
G|--77-88--77-88--77-88-------------------------|
D|--88-88--88-88--88-88-------------------------|
A|--66-66--66-66--66-66-------------------------|
E|----------------------------------------------|   x6

pre verse: 

guitar 1

e|----------------------------------------------|
B|----------------------------------------------|
G|----------------------------------3-----------|
D|--1-------------------------------x-----------|
A|--1---------------------------1-1-1-----------|
E|--1---------------------------1-1-------------|
                                . .
guitar 2

e|----------------------------------------------|
B|----------------------------------------------|
G|--88888---88888---88888---77777---88-77-88-7--|
D|--88888---88888---88888---88888---88-88-88-8--|
A|--66666---66666---66666---66666---66-66-66-6--|
E|----------------------------------------------|

verse:

guitar 1

e|----------------------------------------------|
B|----------------------------------------------|
G|----------------------------------------------|
D|--10---6---10---6---8---10---12---------------|
A|--10---6---10---6---8---10---12---------------|
E|--10---6---10---6---8---10---12---------------|
    ..   .   ..               
        
guitar 2  

e|----------------------------------------------|
B|----------------------------------------------|
G|--88888---88888---88888---88888---88-77-88-7--|
D|--88888---88888---88888---88888---88-88-88-8--|
A|--66666---66666---66666---66666---66-66-66-6--|
E|----------------------------------------------|   x2

           pauses

e|----------------------------------------------|
B|----------------------------------------------|
G|--88--1010--1212--1010------------------------|
D|--xx--x x --x x --x x ------------------------|
A|--66--8 8---1010--8 8 ------------------------|
E|----------------------------------------------|   x3

e|----------------------------------------------|
B|----------------------------------------------|
G|--88--1010--1212--1313--1212--1010--1212--1010|
D|--xx--x x --x x --x x --x x --x x --x x --x x |
A|--66--8 8 --1010--1111--1010--8 8 --1010--8 8 |
E|----------------------------------------------|

chorus:

guitar 1

e|----------------------------------------------|
B|----------------------------------------------|
G|----------------------------------------------|
D|--1--------10--------6----8-------------------|
A|--1--------10--------6----8-------------------|
E|--1--------10--------6----8-------------------|

guitar 2

e|----------------------------------------------|
B|----------------------------------------------|
G|--77-88--77-88--77-88-------------------------|
D|--88-88--88-88--88-88-------------------------|
A|--66-66--66-66--66-66-------------------------|
E|----------------------------------------------|   x6

bridge:

guitar 1

e|----------------------------------------------|
B|----------------------------------------------|
G|----------------------------------------------|
D|--1-------------------------------------------|
A|--1-------------------------------------------|
E|--1-------------------------------------------|

guitar 2

e|----------------------------------------------|
B|----------------------------------------------|
G|------7/8-8-----7/8-8-----7/8-----------------|
D|----8---------8---------8---------------------|
A|--6---------6---------6-----------------------|
E|----------------------------------------------|  x2

continued:

guitar 1

e|----------------------------------------------|
B|----------------------------------------------|
G|----------------------------------------------|
D|--5---6---5---6---1~--------------------------|
A|--5---6---5---6---1~--------------------------|
E|--5---6---5---6---1~--------------------------|

e|----------------------------------------------|
B|----------------------------------------------|
G|----------------------------------------------|
D|--5---6---5---6-------------------------------|
A|--5---6---5---6-------------------------------|
E|--5---6---5---6-------------------------------|  

guitar 2

e|----------------------------------------------|
B|----------------------------------------------|
G|------7/8-8-----7/8-8-----7/8-----------------|
D|----8---------8---------8---------------------|
A|--6---------6---------6-----------------------|
E|----------------------------------------------|  x6

continued: again..

guitar 1

e|----------------------------------------------|
B|----------------------------------------------|
G|----------------------------------------------|
D|--10---8---6---8--888-8----------------------|
A|--10---8---6---8--888-8----------------------|
E|--10---8---6---8--888-8----------------------|
                     ...

guitar 2

e|----------------------------------------------|
B|----------------------------------------------|
G|--888-777-888-101010-88-77--------------------|
D|--xxx-xxx-xxx-x x x -xx-xx--------------------|
A|--666-555-666-8 8 8 -66-55--------------------|
E|----------------------------------------------|   x7

e|----------------------------------------------|
B|----------------------------------------------|
G|--888-777-8-3---------------------------------|
D|--xxx-xxx-x-x---------------------------------|
A|--666-555-6/1---------------------------------|
E|----------------------------------------------|

chorus:

guitar 1

e|----------------------------------------------|
B|----------------------------------------------|
G|----------------------------------------------|
D|--1--------10--------6----8-------------------|
A|--1--------10--------6----8-------------------|
E|--1--------10--------6----8-------------------|   x2

guitar 2

e|----------------------------------------------|
B|----------------------------------------------|
G|--77-88--77-88--7-88--------------------------|
D|--88-88--88-88--8-88--------------------------|
A|--66-66--66-66--6-66--------------------------|
E|----------------------------------------------|   x12

guitar 1

e|----------------------------------------------|
B|----------------------------------------------|
G|----------------------------------------------|
D|--1-------------------------------------------|
A|--1-------------------------------------------|
E|--1-------------------------------------------|





Comments


Popular Matchbook Romance tabs & chords
Monsters Bass Tabs
If All Else Fails Chords
Stay Tonight Chords
14 Balloons Tabs
Introduction Tabs
Promise Tabs
Tiger Lily Tabs
Your Stories My Alibis 1 Tabs
Cream Soda Ukulele
Your Stories My Alibis Ukulele


Song lyrics



↑ Back to top | Tablatures and chords are parodies/interpretations of the original songs. You may use it for private study, scholarship, research or language learning purposes only
© 2014 AZChords.com Contact us | Privacy policy | DMCA | Add/correct tabs | Request tabs | Top 50 tabs