» » »

Matchbook Romance, She'll Never Understand Tabs (ver.2)

Artists:  A B C D E F G H I J K L M N O P Q R S T U V W X Y Z # 

She'll Never Understand Tabs (ver.2)

Matchbook Romance Tabs
 Rating:
4/5 (4 votes)
She'll Never Understand lessons Tabs too difficult? Try these video lessons and learn fast
                "(1)

Intro           Strum this part
  |-----------|------------------------------------------------|
  |-----------|------------------------------------------------|
  |-2~---2~---|--2>-------------9>-6>--------2>----------------|
  |-----------|-------2>---0>---------------------2>---000000--|pause

Pre-Verse
  |-------------------------------------------------------------repeat--| 2x
  |---------------------------------------------------------------------|
  |-22222-444-222-11111-444-111-77777-9-9-9--777-6-6-6/77-444-76--------|
  |---------------------------------------------------------------------|

Pre-Verse Continuation

  |-------------------|
  |-------------------|
  |----2~--4~--6~--7~-|
  |-------------------|

Verse
  |---------------------------------------------------------------|repeat 2x
  |---------------------------------------------------------------|
  |-2-2222222222222-----------------------------------66666-44444-|
  |-----------------2-22222222222222-0-0000000000000--------------|

Chorus – repeat 3x
  |------------------------------------|--------------------|
  |------------------------------------|--------------------|
  |-----------22222--------------------|-----------22-2~-2--|pause
  |-000000000-------22222--------------|00-0-000-0----------|

Repeat Pre-Verse (except Pre-Verse Continuation)
Repeat Verse
Repeat Chorus


Bridge                       repeat 2x
  |-------------------------|----------------|
  |-------------------------|----------------|
  |-2~----1/2~----2/6~--7~--|-2>-------------|
  |-------------------------|----2>-0>-9>----|


Repeat Pre-Verse (except Pre-Verse Continuation)
Repeat Chorus

Ending
  |------------------------------------|
  |------------------------------------|
  |------------------------------------|
  |-0000000-2222222-0000000-222222x-4~-| let ring

That’s it… So so so Simple
I actually play the Guitar/Vocals in my Band,
I just accidentally made this one for my bassist…
Well this site actually help me a lot…
Though some are not accurate tabs, you will still be able to find tips and ideas…
"            
Submit corrections

comments powered by Disqus
↑ Back to top | Matchbook Romance Tabs for She'll Never Understand. Lyrics for acoustic guitar and electric guitar. Tablatures and chords are parodies/interpretations of the original songs. You may use it for private study, scholarship, research or language learning purposes only