>
 >
She'll Never Understand

She'll Never Understand Guitar Tabs

Matchbook Romance - She'll Never Understand chords, tabs, tablatures, lyrics

Guitar lessons | Add/correct | Request | Top 50 tabs Artists:  A B C D E F G H I J K L M N O P Q R S T U V W X Y Z 0-9

She'll Never Understand Guitar Tabs – Matchbook Romance

CD, Sheet music, Poster

Do you like She'll Never Understand? Share with your friends now
ChordsTabs

Tuning: Db

PLEASE Rate! E-mail me if you have a reaquest or comment.

----------------------------------------------------------------------------
Guitar One - Judas Depaolo
----------------------------------------------------------------------------

Intro - strum these notes up and down X3  Then 4th time:
eb|--------------------------------------|----------------------
  |-55555-44444-77777-5555-4444----------|-55555-44444-77777777-
  |-44444-44444-44444-4444-4444----------|-44444-44444-44444444-
  |--------------------------------------|----------------------
  |--------------------------------------|----------------------
Db|--------------------------------------|----------------------

Pre-Verse
eb|--------------------------------------------------------------
  |--------------------------------------------------------------
  |-44444-666-444-33333-666-333-99999-111111-999-8-8-8-99-666-98-
  |-xxxxx-xxx-xxx-xxxxx-xxx-xxx-xxxxx-x-x-x--xxx-x-x-x-xx-xxx-xx-
  |-22222-444-222-11111-444-111-77777-9-9-9--777-6-6-6/77-444-76-
Db|--------------------------------------------------------------

Pre-Verse Cont.
eb|--------------------------------------------------------------
  |--------------------------------------------------------------
  |-44444-666-888-33333-666-333-99999-111111-999-8-8-8-99-666-98-
  |-xxxxx-xxx-xxx-xxxxx-xxx-xxx-xxxxx-x-x-x--xxx-x-x-x-xx-xxx-xx-
  |-22222-444-666-11111-444-111-77777-9-9-9--777-6-6-6/77-444-76-
Db|--------------------------------------------------------------


Pre-Verse Cont.
eb|---------------------
  |---------------------
  |-444-44-4-44-4-444-4-
  |-xxx-xx-x-xx-x-xxx-x-
  |-222-22-2-22-2-222-2-
Db|---------------------
PM      ..   ..         

Verse - "Leave a message on your phone..." X2
eb|---------------------------------------------------------------
  |---------------------------------------------------------------
  |-4-4444444444444-----------------------------------------------
  |-4-4444444444444-4-44444444444444-2-2222222222222--66666-44444-
  |-2-2222222222222-4-44444444444444-2-2222222222222--66666-44444-
Db|-----------------4-44444444444444-2-2222222222222--66666-44444-
      .............   ..............   .............
     

Chorus - "If I can't be the guy..." X3  Then.
eb|------------------------------------|--------------------
  |------------------------------------|--------------------
  |-----------44444-66666--------------|--------------------
  |-222222222-xxxxx-xxxxx--------------|22-2-222-2-44-4~-4x-
  |-222222222-22222-44444--------------|22-2-222-2-44-4~-4x-
Db|-222222222--------------------------|22-2-222-2-44-4~-4x-
PM                                      ..   ...   ..

Repeat Pre-Verse *ACCEPT the 3rd part*

Repeat Verse - "The choice is up to you..."


Bridge - Im not sure about the last note.
eb|-------------------------------------
  |-------------------------------------
  |-4~--444~--44444434~--444~-4-6-8~-6~-
  |-x~--xxx~--xxxxxxxx~--xxx~-x-x-x~-x~-
  |-2~--222~--22222212~--222~-2/4/6~-4~-
Db|-------------------------------------

Bridge Cont.
eb|--------------------------------------------------------
  |-44-7-44-5-4-4--44-7-44-5-4-4--44-7-44-5-4-4--44-777777-
  |-44-4-44-4-4-4--44-4-44-4-4-4--44-4-44-4-4-4--44-444444-
  |--------------------------------------------------------
  |--------------------------------------------------------
Db|--------------------------------------------------------
PM  ..   ..   .    ..   ..   .    ..   ..   .    ..

Bridge Cont.
eb|-------------------------------------------------
  |-44-7-44-5-4-4--44-7-44-5-4-4--44-77777777777777-
  |-44-4-44-4-4-4--44-4-44-4-4-4--44-44444444444444-
  |-------------------------------------------------
  |-------------------------------------------------
Db|-------------------------------------------------
PM  ..   ..   .    ..   ..   .    ..

Repeat Pre-Verse

Repeat Chorus

Ending
eb|------------------------------------
  |------------------------------------
  |------------------------------------
  |-2222222-4444444-2222222-444444x-4~-
  |-2222222-4444444-2222222-444444x-4~-
Db|-2222222-4444444-2222222-444444x-4~-



---------------------------------------------------------------------------
Guitar Two - Andrew Jordan
---------------------------------------------------------------------------


Intro           Strumming Undefined      
eb|--------------------------------------
  |--------------------------------------
  |-4~----4~----4>----------11>----------
  |-4~----4~----4>--4>--2>--9->--6>--4x--
  |-2~----2~----2>--4>--2>--9->--6>--4x--
Db|-----------------4>--2>--9->--6>--4x--


Pre-Verse
eb|----------------------------------------------------
  |----------------------------------------------------
  |-4>-------11>------------------------4~--6~--8~--9~-
  |-4>-4>-2>-9->-6x-6x-666-6x-4>--------x~--x~--x~--x~-
  |-2>-4>-2>-9->-6x-6x-666-6x-4>--------2~--4~--6~--7~-
Db|----4>-2>-9->-6x-6x-666-6x-4>-----------------------

Verse - Same as Guitar One

Chorus - X3                             Then.
eb|------------------------------------|--------------------
  |------------------------------------|--------------------
  |-----------44444--------------------|--------------------
  |-222222222-44444-44444--------------|22-2-222-2-44-4~-4x-
  |-222222222-22222-44444--------------|22-2-222-2-44-4~-4x-
Db|-222222222-------44444--------------|22-2-222-2-44-4~-4x-
PM                                      ..   ...   ..


eb|------------------------------
  |------------------------------
  |-4>-------11>-----------------
  |-4>-4>-2>-9->-6x-6x-666-6x-4>-
  |-2>-4>-2>-9->-6x-6x-666-6x-4>-
Db|----4>-2>-9->-6x-6x-666-6x-4>-

Repeat Verse - Same as Guitar One

Repeat Chorus

Bridge                       Play 2X
eb|-------------------------|------------------------------
  |-------------------------|------------------------------
  |-4~----3-4~----4-8~--9~--|-4>-------11>-----------------
  |-x~----x-x~----x-x~--x~--|-4>-4>-2>-9->-6x-6x-666-6x-4>-
  |-2~----1/2~----2/6~--7~--|-2>-4>-2>-9->-6x-6x-666-6x-4>-
Db|-------------------------|----4>-2>-9->-6x-6x-666-6x-4>-

Repeat Chorus

Ending
eb|------------------------------------
  |------------------------------------
  |------------------------------------
  |-2222222-4444444-2222222-444444x-4~-
  |-2222222-4444444-2222222-444444x-4~-
Db|-2222222-4444444-2222222-444444x-4~-





Comments


Popular Matchbook Romance tabs & chords
Cream Soda Chords
Stay Tonight Chords
Tiger Lily Chords
If All Else Fails Tabs
Monsters 7 Tabs
Stories And Alibis Tabs
Tiger Lily 1 Tabs
Goody Like Two Shoes Ukulele
Surrender 2 Ukulele
Your Stories My Alibis Ukulele


Song lyrics



↑ Back to top | Tablatures and chords are parodies/interpretations of the original songs. You may use it for private study, scholarship, research or language learning purposes only
© 2014 AZChords.com Contact us | Privacy policy | DMCA | Add/correct tabs | Request tabs | Top 50 tabs