>
 >
Save Yourself

Save Yourself Guitar Tabs

Matchbook Romance - Save Yourself chords, tabs, tablatures, lyrics

Guitar lessons | Add/correct | Request | Top 50 tabs Artists:  A B C D E F G H I J K L M N O P Q R S T U V W X Y Z 0-9

Save Yourself Guitar Tabs – Matchbook Romance

CD, Sheet music, Poster

Do you like Save Yourself? Share with your friends now
ChordsTabsUkulele
------------------------------------------------------------------------
------------------------------------------------------------------------

Tuning: Standard eBGDAE

Intro - Guitar 1
e|----------------------------------------|  ( x 100 )
B|----------------------------------------|
G|---4------------------------------------|
D|---x------------------------------------|
A|---6------------------------------------|  After 20x Play intro 2
E|----------------------------------------|

Intro - Guitar 2
e|----------------------------------------|  ( x 4 )
B|----------------------------------------|
G|----------------------------------------|
D|-88-88-88-66-66-66-44-44-44-44-44-44-4--|
A|-88-88-88-66-66-66-44-44-44-44-44-44-4--|  After 2x Play intro 3
E|-66-66-66-44-44-44-22-22-22-22-22-22-2--|
PM .. .. .. .. .. .. .. .. .. .. .. ..

Intro - Guitar 3
e|----------------------------------------|
B|-6--------------------------------------|
G|---8-6-5-6-8-6-5------------------------|
D|----------------------------------------|
A|----------------------------------------| Play x6
E|----------------------------------------|
PM . . . . . . . .

End of Intro - All Guitars
e|----------------------------------------|
B|----------------------------------------|
G|----------------------------------------|
D|--4~-4~---------------------------------|
A|--4~-4~---------------------------------|
E|--2~-2~---------------------------------|

Verse 1 - Guitar 1
e|---------------------------------------|
B|---------------------------------------|
G|---------------------------------------|
D|-88888888/66666666/444-44444-444-44444-|   2X
A|-88888888/66666666/444-44444-444-44444-|
E|-66666666/44444444/222-22222-222-22222-|

e|---------------------------------------|
B|---------------------------------------|
G|---------------------------------------|
D|-88888888/66666666/4444444444444444----|   2x, 2nd time PM
A|-88888888/66666666/4444444444444444----|
E|-66666666/44444444/2222222222222222----|


Verse 1 - Guitar 2
e|----------------------------------------| *Only play first 2 times
B|----------------------------------------|
G|----------------------------------------|
D|-66666666/55555555/--*5h6--*5h6--*5h6---|
A|-xxxxxxxx/xxxxxxxx/---6-----6-----6-----|
E|-44444444/33333333/---4-----4-----4-----|

e|----------------------------------------|
B|----------------------------------------|
G|-5\666/5\666/5\666/5\666/5\666/5\666/5\-
D|-x\xxx/x\xxx/x\xxx/x\xxx/x\xxx/x\xxx/x\-
A|-3\444/3\444/3\444/3\444/3\444/3\444/3\-
E|----------------------------------------

e|-------------------------|
B|-------------------------|
G|-10101010/8888/6666/3333-
D|-x-x-x-x-/xxxx/xxxx/xxxx-|
A|-8-8-8-8-/6666/4444/3333-|
E|-------------------------|

e|----------------------------------------|
B|----------------------------------------|
G|-5\666/5\666/5\666/5\666/5\666/5\666/5\-
D|-x\xxx/x\xxx/x\xxx/x\xxx/x\xxx/x\xxx/x\-
A|-3\444/3\444/3\444/3\444/3\444/3\444/3\-
E|----------------------------------------

e|-------------------------------------------------|
B|-------------------------------------------------|
G|-------55\66-------55\66-------------------------|
D|-888888xx\xx-666666xx\xx-4444444444444444--------| 2X
A|-88888833\44-66666633\44-4444444444444444 PM 244-| 2nd time
E|-666666------444444------2222222222222222--------|

Chorus- Guitar 1
e|-------------------------------------------------------|
B|-------------------------------------------------------|
G|-66666666\8888\10101010\1111111111111111/10101010/8888\
D|-xxxxxxxx\xxxx\x-x-x-x-\x-x-x-x-x-x-x-x-/x-x-x-x-/xxxx\-|
A|-44444444\6666\8-8-8-8-\9-9-9-9-9-9-9-9-/8-8-8-8-/6666\-|
E|--------------------------------------------------------|

e|------------------------------------------------|
B|------------------------------------------------|
G|-1111111111111111/10101010/8888\111111111111111\
D|-x-x-x-x-x-x-x-x-/x-x-x-x-/xxxx\x-x-x-x-x-x-x-x--|
A|-9-9-9-9-9-9-9-9-/8-8-8-8-/6666\9-9-9-9-9-9-9-9\-|
E|-------------------------------------------------|

e|------------------|
B|------------------|
G|-1313131313131313-
D|-x-x-x-x-x-x-x-x--   2X
A|-1111111111111111-
E|------------------

Chorus- Guitar 2
e|----------------------------------------|
B|----------------------------------------|
G|-6666/5555\6666/5555/3333\5555\6666/5555
D|-xxxx/xxxx\xxxx/xxxx/xxxx\xxxx\xxxx/xxxx
A|-4444/3333\4444/3333/1111\3333\4444/3333
E|----------------------------------------

e|--------------------------------------|
B|--------------------------------------|
G|-----5555\6666/5555----5555\6666\8888-|
D|-8888xxxx\xxxx/xxxx4444xxxx\xxxx\xxxx- 2X
A|-66663333\4444/333344443333\4444\6666-
E|-6666--------------2222---------------

Interlude- Guitar 1
e|------    |----------------|
B|------    |----------------|
G|-6666-    |-6-6-6-6-6-6-3~-|
D|-xxxx- 14X|-x-x-x-x-x-x-x--|
A|-4444-    |-4-4-4-4-4-4-1~-|
E|------    |----------------|

Interlude- Guitar 2
e|------------------------------------------------|
B|------------------------------------------------|
G|-1515151515151515/131313131313/1111111111111111-
D|-x-x-x-x-x-x-x-x-/x-x-x-x-x-x-/x-x-x-x-x-x-x-x--|
A|-1313131313131313/111111111111/9-9-9-9-9-9-9-9--|
E|------------------------------------------------|

e|------------------------------------------------------|
B|------------------------------------------------------|
G|-1111111111111111-15151515-15151515-13131313-13131313-|
D|-x-x-x-x-x-x-x-x--x-x-x-x--x-x-x-x--x-x-x-x--x-x-x-x--|
A|-9-9-9-9-9-9-9-9--13131313-13131313-11111111-11111111-|
E|------------------------------------------------------|

e|----------------------------------------|
B|----------------------------------------|
G|-11111111-11111111-11/10\11\13/11/10/6~-|
D|-x-x-x-x--x-x-x-x--x-/x-\x-\x-/x-/x-/x--|
A|-9-9-9-9--9-9-9-9--9-/8-\9-\11/9-/8-/4~-|
E|----------------------------------------|

Bridge - Guitar 1
e|-----------------------------------|------------|
B|-----------------------------------|------------|
G|-----------------------------------|-3\6\11\10~-|
D|-6-4~-8888-4~-8888-4-4-4-4-4-4-4-4-|-x\x\x-\x---|
A|-6-4~-8888-4~-8888-4-4-4-4-4-4-4-4-|-1\4\9-\8-~-|
E|-4-2~-6666-2~-6666-2-2-2-2-2-2-2-2-|------------|
PM      ....    ....

e|----------------------------------------------------|
B|----------------------------------------------------|
G|----------------------------------------------------|
D|-8888-8888-8888-8888-88/66-4444-4444-4444-4444-4\6--|
A|-8888-8888-8888-8888-88/66-4444-4444-4444-4444-4\6--|
E|-6666-6666-6666-6666-66/44-2222-2222-2222-2222-2\4--|
e|----------------------------------------------------|
B|----------------------------------------------------|
G|----------------------------------------------------|
D|-8888-8888-8888-8888-88/66-4-44-444-44-44444444-----|
A|-8888-8888-8888-8888-88/66-4-44-444-44-44444444-----|
E|-6666-6666-6666-6666-66/44-2-22-222-22-22222222-----|

Bridge- Guitar 2
e|-----------------------------------------------------|
B|-----------------------------------------------------|
G|-----------------------------------------------------|
D|-8888-8888-8888-8888-88/66-4444-4444-4444-4444-44\66-| 3X
A|-8888-8888-8888-8888-88/66-4444-4444-4444-4444-44\66-|
E|-6666-6666-6666-6666-66/44-2222-2222-2222-2222-22\44-|

e|-------------------------------------------------|
B|-------------------------------------------------|
G|-----------------------------------------66\8\10-|
D|-8888-8888-8888-8888-88/66-4-4-4-4\6-4-4-xx\x\x--|
A|-8888-8888-8888-8888-88/66-4-4-4-4\6-4-4-44\6\8--|
E|-6666-6666-6666-6666-66/44-2-2-2-2\4-2-2---------|

e|-------------------------------------------------------|
B|-------------------------------------------------------|
G|-6666-6666-8888-6666-66/55-6666-8888-6666-10101010-6/5-|
D|-xxxx-xxxx-xxxx-xxxx-xx/xx-xxxx-xxxx-xxxx-x-x-x-x--x/x-|
A|-4444-4444-6666-4444-44/33-4444-6666-4444-8-8-8-8--4/3-|
E|-------------------------------------------------------|

e|-------------------------------------|
B|-------------------------------------|
G|-6666-6666-8888-6666-66/55-66666666/-|
D|-xxxx-xxxx-xxxx-xxxx-xx/xx-xxxxxxxx/-|
A|-4444-4444-6666-4444-44/33-44444444/-|
E|-------------------------------------|

Verse 2- Guitar 1
e|---------------------------------------|
B|---------------------------------------|
G|---------------------------------------|
D|-88888888/66666666/444-44444-444-44444-|
A|-88888888/66666666/444-44444-444-44444-|
E|-66666666/44444444/222-22222-222-22222-|


e|------------------------------------|
B|------------------------------------|
G|------------------------------------|
D|-88888888/66666666/4444444444444444-
A|-88888888/66666666/4444444444444444-
E|-66666666/44444444/2222222222222222-

Verse 2- Guitar 2
e|---------------------------------------------|
B|---------------------------------------------|
G|-------55\66-------55\66---------------------|
D|-888888xx\xx-666666xx\xx-444-44444-444-44444-|
A|-88888833\44-66666633\44-444-44444-444-44444-|
E|-666666------444444------222-22222-222-22222-|


e|------------------------------------------|
B|-------55\66-------55\66------------------|
G|-------xx\xx-------xx\xx------------------|
D|-88888833\44-66666633\44-4444444444444444-|
A|-888888------666666------4444444444444444-|
E|-666666------444444------2222222222222222-|

* While Verse 2 is playing Play intro - guitar 3

Chorus- Guitar 1
e|-------------------------------------------------------|
B|-------------------------------------------------------|
G|-66666666\8888\10101010\1111111111111111/10101010/8888\
D|-xxxxxxxx\xxxx\x-x-x-x-\x-x-x-x-x-x-x-x-/x-x-x-x-/xxxx\-|
A|-44444444\6666\8-8-8-8-\9-9-9-9-9-9-9-9-/8-8-8-8-/6666\-|
E|--------------------------------------------------------|


e|------------------------------------------------|
B|------------------------------------------------|
G|-1111111111111111/10101010/8888\111111111111111\
D|-x-x-x-x-x-x-x-x-/x-x-x-x-/xxxx\x-x-x-x-x-x-x-x--|
A|-9-9-9-9-9-9-9-9-/8-8-8-8-/6666\9-9-9-9-9-9-9-9\-|
E|-------------------------------------------------|

Chorus- Guitar 2
e|------------------|
B|------------------|
G|-1313131313131313-
D|-x-x-x-x-x-x-x-x--   2X
A|-1111111111111111-
E|------------------


e|----------------------------------------|
B|----------------------------------------|
G|-6666/5555\6666/5555/3333\5555\6666/5555
D|-xxxx/xxxx\xxxx/xxxx/xxxx\xxxx\xxxx/xxxx
A|-4444/3333\4444/3333/1111\3333\4444/3333
E|----------------------------------------


e|--------------------------------------|
B|--------------------------------------|
G|-----5555\6666/5555----5555\6666\8888-|
D|-8888xxxx\xxxx/xxxx4444xxxx\xxxx\xxxx- 3X
A|-66663333\4444/333344443333\4444\6666-
E|-6666--------------2222---------------

Ending - Guitar 1
e|------|
B|------|
G|-6666-
D|-xxxx-
A|-4444-
E|------

Ending - Guitar 2
e|------|
B|------|
G|-3333-
D|-xxxx-
A|-1111-
E|------





Comments


Popular Matchbook Romance tabs & chords
If All Else Fails 1 Bass Tabs
Cream Soda Chords
If All Else Fails Chords
Singing Bridges Chords
Tiger Lily Chords
14 Balloons Tabs
Monsters Tabs
Monsters 6 Tabs
The Greatest Fall Tabs
You Can Run But Well Find You Tabs


Song lyrics



↑ Back to top | Tablatures and chords are parodies/interpretations of the original songs. You may use it for private study, scholarship, research or language learning purposes only
© 2014 AZChords.com Contact us | Privacy policy | DMCA | Add/correct tabs | Request tabs | Top 50 tabs