>
 >
Promise Intro 1

Promise Intro 1 Guitar Tabs

Matchbook Romance - Promise Intro 1 chords, tabs, tablatures, lyrics

Guitar lessons | Add/correct | Request | Top 50 tabs Artists:  A B C D E F G H I J K L M N O P Q R S T U V W X Y Z 0-9

Promise Intro 1 Guitar Tabs – Matchbook Romance

CD, Sheet music, Poster

Do you like Promise Intro 1? Share with your friends now
Tabs
-------------------------------------------------------------------------------
                             PROMISE - Matchbook Romance
-------------------------------------------------------------------------------

I've seen too many horrible tabs for this song the other versions werent even close
to right so i tabbed it myself.

This song is not played with a pick it is played with your thumb and middle
finger plucking alternately listen to the song for timing.

Tuning:STANDARD

e|----0---0--0--0--0-----0---0--0--0--0-----0---0--0--0--0-----0---0--0--0--0------|
B|---------------------------------------------------------------------------------|
G|---------------------------------------------------------------------------------| 2x
D|---------------------------------------------------------------------------------|
A|--7---7--7--7--7-----2---2--2--2--2-----0---0--0--0--0---------------------------|
E|-------------------------------------------------------------2---4--5--7--7------|

e|----0---0--0--0--0-----0---0--2--0--0-----0---2--5--4--4------------------------|
B|--------------------------------------------------------------------------------|
G|--------------------------------------------------------------------------------|
D|--------------------------------------------------------------------------------|
A|--7---7--7--7--7-----2---2--2--2--2-----0---0--0--0--0--------------------------|
E|-------------------------------------------------------------2---4--5-----------|

Verse 1  (Clean)
       e|----12------------0----0----0----0----0----0----0----0----0----0----0----0----|
       B|-------12-------0----0----0----0----0----0----0----0----0----0----0----0------|
       G|----------9-------------------------------------------------------------------|
       D|------------------------------------------------------------------------------|
       A|--------------7----7----7----7----2----2----2----2----0----0----0----0--------|
       E|------------------------------------------------------------------------------|
          "...start over with me.  Would you take my hand
       e|------------------------------------------------------------------------|
       B|------------------------------------------------------------------------|
       G|------------------------------------------------------------------------|
       D|------6--4----6--5--5------6-6--6-6--4-4--4-4--2-2--2-2--6-6--6-6-------|
       A|------6--6----8--7--7------6-6--6-6--6-6--6-6--4-4--4-4--6-6--6-6-------|
       E|------4--6----8--7--7------4-4--4-4--6-6--6-6--4-4--4-4--4-4--4-4-------|
         "I'll never let me go..." "And the stars..." x2
       e|------------------------------------------------0----0----0----0------|
       B|----------------------------------------------0----0----0----0--------|
       G|----------------------------------------------------------------------|
       D|---6----4-----6------------------------6------------------------------|
       A|---6----6-----8------------------------8----7----7----7----7----------|
       E|---4----6-----8------------------------8------------------------------|
          "Take this broken heart and make it right"

Chorus
       e|---------x---------------x---------------------x-----x---------------------|
       B|---------x---------------x---------------------x-----x---------------------|
       G|---------6---------------8---------------------8-----4---------------------|
       D|---------6---------------8---------------------8-----4---------------------|
       A|---------4---------------6---------------------6-----2---------------------|
       E|---------4---------------6---------------------6-----2---------------------|
         "I feel like I've lost everything when you're gone...
       e|--------x-------x-----------------x-------x-----------------x------x-------|
       B|--------x-------x-----------------x-------x-----------------x------x-------|
       G|--------6-------8-----------------4-------6-----------------4------6-------|
       D|--------6-------8-----------------4-------6-----------------4------6-------|
       A|--------4-------6-----------------2-------4-----------------2------4-------|
       E|--------4-------6-----------------2-------4-----------------2------4-------|
         ..it's like to have you here with me, I thought you should know, you're not 
this easy..."

Verse 2 (Distorted)
       e|----0----0----0----0----0----0----0----0----0----0----0----0------|
       B|--0----0----0----0----0----0----0----0----0----0----0----0--------|
       G|------------------------------------------------------------------|  2x
       D|------------------------------------------------------------------|
       A|7----7----7----7----2----2----2----2----0----0----0----0----------|
       E|------------------------------------------------------------------|
             "I never thought I'd be the one to say...

Chorus

Bridge:
       e|--x--x--x-----------------------------------|
       B|--x--x--x-----------------------------------|
       G|--4--6--8-----------------------------------|
       D|--6--8--10----------------------------------|
       A|--6--8--10----------------------------------|
       E|--4--6--8-----------------------------------|
                    "you're not making this easy"


       e|-------------------------------------------------------------------|
       B|-------------------------------------------------------------------|
       G|-------------------------------------------------------------------|
       D|-------------------------------------------------------------------|
       A|---8--6--4-----10---8--6--4-------------------10---4----6----8-----|
       E|---8--6--4-----10---8--6--4-------------------10---4----6----8-----|
                         "take my hand & never let me go...take my hand..."


       e|--------------------------------x---x---x---x--------------|
       B|--------------------------------x---x---x---x--------------|
       G|--------------------------------6---4---6---4--6-6-6-------|
       D|--------------------------------8---6---8---6--8-8-8-------|
       A|--10--4-------6------------8----8---6---8---6--8-8-8-------|
       E|--10--4-------6------------8----6---4---6---4--6-6-6-------|
          "Promise me...you'll never let go


       Chorus





Comments


Popular Matchbook Romance tabs & chords
If All Else Fails Bass Tabs
The Greatest Fall 1 Bass Tabs
14 Balloons Chords
Hollywood And Vine Chords
If All Else Fails Chords
Singing Bridges Chords
What A Sight Chords
Fiction Ukulele
Monsters Ukulele
Save Yourself Ukulele


Song lyrics



↑ Back to top | Tablatures and chords are parodies/interpretations of the original songs. You may use it for private study, scholarship, research or language learning purposes only
© 2014 AZChords.com Contact us | Privacy policy | DMCA | Add/correct tabs | Request tabs | Top 50 tabs