» » »

Portrait Tabs (ver.1)

Artists:  A B C D E F G H I J K L M N O P Q R S T U V W X Y Z # 

Portrait Tabs (ver.1)

Matchbook Romance
Rating:
3/5 (3 votes)

Hard to play? Try these video lessons and learn fast.
                time signature: 4/4
tunning: down 1/2 a step (Eb - Ab - Db - Gb - Bb - Eb)

intro:
Eb---------|
Bb---------|
Gb-16------|
Db----x32--|
Ab-14------|
Eb---------|

verse:
Eb-------------------------------------|
Bb-------------------------------------|
Gb-16-------21-------16-------21-------|
Db----x32------x32------x32--------x32-|
Ab-14-------19-------14-------19-------|
Eb-------------------------------------|

bridge:
Eb--------------------------|
Bb--------------------------|
Gb-17-------14-------16-----|
Db----x16------x16------x32-|
Ab-15-------12-------14-----|
Eb--------------------------|

Eb--------------------------|
Bb--------------------------|
Gb-17-------14-------16-----|
Db----x16------x16------x32-|
Ab-15-------12-------14-----|
Eb--------------------------|

then there is a little break with
a drum fill just before the chorus

chorus:
Eb-----------------------------------------------|
Bb-----------------------------------------------|
Gb---------5---------------4-------5-------2-----|
Db-2-------5-x16---5-------4-x16---5-x16---2-x16-|
Ab-2-x16---3-------5-x16---2-------3-------0-----|
Eb-0---------------3-----------------------------|

verse:
Eb-------------------------------------|
Bb-------------------------------------|
Gb-16-------21-------16-------21-------|
Db----x32------x32------x32--------x32-|
Ab-14-------19-------14-------19-------|
Eb-------------------------------------|

bridge:
Eb--------------------------|
Bb--------------------------|
Gb-17-------14-------16-----|
Db----x16------x16------x32-|
Ab-15-------12-------14-----|
Eb--------------------------|

Eb--------------------------|
Bb--------------------------|
Gb-17-------14-------16-----|
Db----x16------x16------x32-|
Ab-15-------12-------14-----|
Eb--------------------------|

again, there is a break

chorus:
Eb-----------------------------------------------|
Bb-----------------------------------------------|
Gb---------5---------------4-------5-------2-----|
Db-2-------5-x16---5-------4-x16---5-x16---2-x16-|
Ab-2-x16---3-------5-x16---2-------3-------0-----|
Eb-0---------------3-----------------------------|

bridge:
Eb-11-12-14-15-----|
Bb-----------------|
Gb-----------------|
Db-----------------| x8
Ab-----------------|
Eb-----------------|

Eb--------15----14-|
Bb-12--12----12----|
Gb-----------------|
Db-----------------| x12
Ab-----------------|
Eb-----------------|

Eb-----12-14-15-15-|
Bb-----------------|
Gb-----------------|
Db-----------------| x4
Ab-----------------|
Eb-----------------|

Eb-12-------14-15----14----|
Bb----12-12-------12----12-|
Gb-------------------------|
Db-------------------------| x4
Ab-------------------------|
Eb-------------------------|

Eb-----12-14-15-15--------12-14-17-15-|
Bb------------------------------------|
Gb------------------------------------|
Db------------------------------------| x2
Ab------------------------------------|
Eb------------------------------------|

Eb-12-------14-15----14----|
Bb----12-12-------12----12-|
Gb-------------------------|
Db-------------------------| x4
Ab-------------------------|
Eb-------------------------|

Eb-----15-14-12----|
Bb--------------13-|
Gb-----------------|
Db-----------------| x8
Ab-----------------|
Eb-----------------|

Eb-----15-14-12----|
Bb--------------12-|
Gb-----------------|
Db-----------------| x8
Ab-----------------|
Eb-----------------|

Eb-----15-14-12----|
Bb--------------13-|
Gb-----------------|
Db-----------------| x8
Ab-----------------|
Eb-----------------|

chorus:
Eb-----------------------------------------------|
Bb-----------------------------------------------|
Gb---------5---------------4-------5-------2-----|
Db-2-------5-x16---5-------4-x16---5-x16---2-x16-|
Ab-2-x16---3-------5-x16---2-------3-------0-----|
Eb-0---------------3-----------------------------|

Eb-----------------------------------------------|
Bb-----------------------------------------------|
Gb---------5---------------4-------5-------2-----|
Db-2-------5-x16---5-------4-x16---5-x16---2-x16-|
Ab-2-x16---3-------5-x16---2-------3-------0-----|
Eb-0---------------3-----------------------------|

end on:
Eb----
Bb----
Gb----
Db-2--
Ab-2--
Eb-0--

please rate and comment!
            
Hard to play? Try these video lessons and learn fast. | Correct




comments powered by Disqus
↑ Back to top | Tablatures and chords are parodies/interpretations of the original songs. You may use it for private study, scholarship, research or language learning purposes only