>
 >
My Eyes Burn

My Eyes Burn Guitar Tabs

Matchbook Romance - My Eyes Burn chords, tabs, tablatures, lyrics

Guitar lessons | Add/correct | Request | Top 50 tabs Artists:  A B C D E F G H I J K L M N O P Q R S T U V W X Y Z 0-9

My Eyes Burn Guitar Tabs – Matchbook Romance

CD, Sheet music, Poster

Do you like My Eyes Burn? Share with your friends now
ChordsTabsUkulele
Tuning: Db

. - Palm mute
> - strumming not defined
x - mute that string




It's not 100% but i think its pretty close.

----------------------------------------------------------------------
Guitar One - Judas Dapaolo
----------------------------------------------------------------------

Intro
eb|-------------------------------------------------------------------
  |-8-------6------7------3------5-------8------10------8------7------
  |-9-(x16)-7-(x8)-7-(x4)-4-(x4)-5-(x16)-7-(x4)-7--(x4)-7-(x4)-7-(x4)-
  |-------------------------------------------------------------------
  |-------------------------------------------------------------------
Db|-------------------------------------------------------------------



Chorus #1 "Take take, everything.."
eb|-------------------------------------------------------------------------
  |-8-8-8888-8-8-8888-77777-88-77-8p7-88-8888-8-8-8888-7777-101010-777-8p7--
  |-7-7-7777-7-7-7777-77777-77-77-7-7-77-7777-7-7-7777-7777-7-7-7--777-7-7--
  |-------------------------------------------------------------------------
  |-------------------------------------------------------------------------
Db|-------------------------------------------------------------------------

Chorus Cont. - Play above 2X accept end like this:
eb|---------------
  |----777777-8-7-
  |-...777777-7-7-
  |---------------
  |---------------
Db|---------------
              

Pre-Verse
eb|------------------------------------------------------
  |------------------------------------------------------
  |----------------------9999-11111111-12121212-14141414-
  |-2222-2222-2222-2222--xxxx-x-x-x-x--x-x-x-x--x-x-x-x--
  |-2222-2222-2222-2222--7777-9-9-9-9--10101010-12121212-
Db|-2222-2222-2222-2222----------------------------------
PM  ....      ....

Verse - "tell me I'm wrong when I say..."
eb|--------------------------------------------------------------
  |--------------------------------------------------------------
  |-55555555-7777-9999-11111111-12121212-999999-1111111-12121212-
  |-55555555-xxxx-xxxx-x-x-x-x--x-x-x-x--xxxxxx-x-x-x-x-x-x-x-x--
  |-33333333-5555-7777-9-9-9-9--10101010-777777-9-9-9-9-10101010-
Db|--------------------------------------------------------------

Verse Cont. (im not sure about this part)                  
eb|--------------------------------------------------------------
  |--------------------------------------------------------------
  |-1111111111111111-11-12~-12-11~-99999999-11111111-12121212--7>
  |-x-x-x-x-x-x-x-x--x--x-~-x--x-~-xxxxxxxx-x-x-x-x--x-x-x-x---7>
  |-9-9-9-9-9-9-9-9--9--10~-10-9-~-77777777-9-9-9-9--10101010--5>
Db|--------------------------------------------------------------

Repeat Intro 2X
Repeat Pre-Verse
Repeat Verse

Chorus #2 - "Take take, everything"
eb|-----------------------------------------------------------------
  |-----------------------------------------------------------------
  |----777777-9999-11111111-12-12-5>-----2~-----777777-9999-11111111
  |-2>-777777-xxxx-x-x-x-x--x--x--x>-2-~-2~--2>-xxxxxx-xxxx-x-x-x-x-
  |-2>-555555-7777-9-9-9-9--10-10-3>-2-~-0~--2>-555555-7777-9-9-9-9-
Db|-2>-------------------------------0-~-----2>---------------------
PM                                                                  

Chorus Cont.
eb|------------------------
  |------------------------
  |--1212-5>--------2222-2-
  |--x-x--x>-2222-2-2222-2-
  |--1010-3>-0000-0-0000-0-
Db|----------0000-0--------
             ....   ....
then:
Bridge
eb|----------------------------------------------------------------
  |----------------------------------------------------------------
  |-----7~-11~-1212-1212-1111-1111-1111-11-1212-1212-1111-1111-1111
  |-0x--x~-x-~-x-x--x-x--x-x--x-x--x-x--x--x-x--x-x--x-x--x-x--x-x-
  |-0x--5~-9-~-1010-1010-9-9--9-9--9-9--9--1010-1010-9-9--9-9--9-9-
Db|-0x-------------------------------------------------------------

Bridge Cont.
eb|----------------------------------------------------------------
  |----------------------------------------------------------------
  |--77-77-99-99-99-77-77-99-99------1212-1212--1111-1111-1414-1414
  |--xx-xx-xx-xx-xx-xx-xx-xx-xx-0000-x-x--x-x---x-x--x-x--x-x--x-x-
  |--55-55-77-77-77-55-55-77-77-0000-1010-1010--9-9--9-9--1212-1212
Db|-----------------------------0000-------------------------------
PM                              ....

Bridge Cont.
eb|----------------------------------------------
  |----------------------------------------------
  |--1111-1111-1212-1111-99-99-99-99-99-99999999-
  |--x-x--x-x--x-x--x-x--xx-xx-xx-xx-xx-xxxxxxxx-
  |--9-9--9-9--1010-9-9--77-77-77-77-77-77777777-
Db|----------------------------------------------

Repeat Verse X1
Repeat Chorus #2 X1
Repeat Chorus #1 X2


-------------------------------------------------------------
Guitar Two - Andrew Jordan
-------------------------------------------------------------

Intro - Only Guitar One

Chorus #1 - something like that, im not too sure. X2
eb|---------------------------------------------------------
  |-8-8-8-8-7-7-7-7-7-8-8-7-7-8p7-8-8-8-8-7-7-7-8-8-8-8-8p7-
  |--7-7-7-7-7-7-7-7-7-7-7-7-7---7-7-7-7---7-7-7-7-7-7-7--7-
  |---------------------------------------------------------
  |---------------------------------------------------------
Db|---------------------------------------------------------

Pre-Verse
eb|-----------------------------------------
  |-----------------------------------------
  |-----------------------------------------
  |-2222-2222-2222-2222-2222-2222-2222-2222-
  |-2222-2222-2222-2222-2222-2222-2222-2222-
Db|-2222-2222-2222-2222-2222-2222-2222-2222-
PM  ....      ....      ....      ....


Verse - Strumming not defined.
eb|----------------------------------------------------------
  |----------------------------------------------------------
  |-5>--7>--5>--4>-x4x4--5>--7777x777--55-5~-77x-4-5~--------
  |-5>--7>--5>--4>-x4x4--5>--7777x777--xx-x~-xxx-x-x~--------
  |-3>--5>--3>--2>-x2x2--3>--5555x555--33-3~-55x-2/3~-2~--5~-
Db|----------------------------------------------------------
PM                                     ..

Verse Cont.
eb|-------------------------------------------------
  |-------------------------------------------------
  |-----------------------5555555555-44444-222-22-2-
  |-2222222222-0000000000-5555555555-44444-222-22-2-
  |-2222222222-0000000000-3333333333-22222-000-00-0-
Db|-2222222222-0000000000---------------------------
PM  .......... .........  .......... ..... ... ..


Verse Cont.
eb|--------------------------------------
  |--------------------------------------
  |--------------------------------------
  |-22222-22-22222-22-22222-22-222222-22-
  |-22222-22-22222-22-22222-22-222222-22-
Db|-22222-22-22222-22-22222-22-222222-22-
          ..       ..       ..        ..

Repeat Verse

Chorus #2 - play the second part of the verse un-muted

Bridge Part 1 - Play X2
eb|----------------------------------
  |----------------------------------
  |----------------------------------
  |-22-22-22-22-22-22-22-22-22-22-22-
  |-22-22-22-22-22-22-22-22-22-22-22-
Db|-22-22-22-22-22-22-22-22-22-22-22-

Bridge Part 2
eb|----------------------------------------------------------
  |----------------------------------------------------------
  |-44-44-55-55-55-44-44-55-55-------------------------------
  |-xx-xx-xx-xx-xx-xx-xx-xx-xx-0000--00-00-00-00-00-00-00-00-
  |-22-22-33-33-33-22-22-33-33-0000--00-00-00-00-00-00-00-00-
Db|----------------------------0000--00-00-00-00-00-00-00-00-
PM                             ....

Bridge Cont.
eb|---------------------------
  |---------------------------
  |--55-55-44-44-44-554455454-
  |--xx-xx-xx-xx-xx-xxxxxxxxx-
  |--33-33-22-22-22-332233232-
Db|---------------------------


Repeat Verse 
Repeat Chorus #2 2X

End On:
eb|----
  |----
  |----
  |-2~-
  |-2~-
Db|-2~-





Comments


Popular Matchbook Romance tabs & chords
I Wish You Were Here Chords
If All Else Fails Chords
In Transit (For You) Chords
Stay Tonight Chords
Surrender Chords
Tiger Lily 2 Chords
You Can Run But Well Find You Chords
14 Balloons Tabs
Lovers And Liars Tabs
Monsters 9 Tabs


Song lyrics



↑ Back to top | Tablatures and chords are parodies/interpretations of the original songs. You may use it for private study, scholarship, research or language learning purposes only
© 2014 AZChords.com Contact us | Privacy policy | DMCA | Add/correct tabs | Request tabs | Top 50 tabs