» » »

Matchbook Romance, Monsters Tabs (ver.5)

Artists:  A B C D E F G H I J K L M N O P Q R S T U V W X Y Z # 

Monsters Tabs (ver.5)

Matchbook Romance Tabs
 Rating:
4/5 (7 votes)
Monsters lessons Tabs too difficult? Try these video lessons and learn fast
1
                ----------------------------------------------------------------------------
                                                          MONSTERS - Matchbook Romance
----------------------------------------------------------------------------


Tuning: Standard / EADGBe

If you have comments, criticism or corrections send them to me or just leave a comment, 
I hope you like the song. Enjoy!

Key:
~ Bend
/ Slide up
\ Slide down
h Hammer on
p Pull off


Lead guitar Intro
______________________________________________

e|--13------------13------------13------------12-13-14/16-----|
B|-----11--14--11----11--14--11----11--14--11-----------------|
G|------------------------------------------------------------| x8
D|------------------------------------------------------------|
A|------------------------------------------------------------|
E|------------------------------------------------------------|

Rhythm Guitar Intro ( :17 )
______________________________________________

e|---------------------------------------------------------------|
B|---------------------------------------------------------------|
G|---------------------------------------------------------------|
D|---------------------------------------------------------------| x5
A|--1/4\1--1/6\1--1/7\1--1/8\1-----------------------------------|
E|---------------------------------------------------------------|

Chorus ( :41 )
______________________________________________

e|--------------------------------------------------------------|
B|--------------------------------------------------------------|
G|--3---------6-------------------------------------------------|
D|--3----4----6----3----4----2----------------------------------| x2
A|--1(x6)-4----4(x6)-3----4----0--------------------------------|
E|-------2(x6)------1(x6)-2(x6)-0(x6)---------------------------|

Lead and rhythm guitar intros are back here. ( 1:07-1:40 )

Chorus ( 1:40-2:04 )


Pre-solo: ( 2:05 )
______________________________________________

e|------------------------------------------------------|
B|------------------------------------------------------|
G|------------------------------------------------------|
D|--3--3--3-3-3-3-3------3-1---1------------------------|
A|--1--1--1-1-1-1-1(x3)-------4---4-3-------------------|
E|-----------------------------------0------------------|

Lead guitar intro here along with this:

e|--------------------------------------------------------|
B|--------------------------------------------------------|
G|--------------------------------------------------------|
D|--8-7----3--1/3\1-----8/11\10-10/13\11-11/15\8-7--------|
A|------------------4-------------------------------------|
E|--------------------------------------------------------|

Yes, there is something here, but I couldn't make it out. The vocals drown it out.

Solo: ( 2:48 )
__________________________________________________

e|---------------------------------------------------------9---|
B|----------------------------------------------------9b-------|
G|-8b---8--6-----6-------------6h8--8b---8--6-----6------------|
D|------------8-----------6h8------------------8---------------|
A|-------------------6h8---------------------------------------|
E|-------------------------------------------------------------|

e|------------------------------------------------------------------|
B|-9-------7-------6------------------------------------------------|
G|--------------------------8-------6-------5-----------------------|
D|--------------------------------------------------8-------7-------|
A|------------------------------------------------------------------|
E|------------------------------------------------------------------|

e|------------------------------------------------|
B|------------------------------------------------|
G|------------------------------------------------|
D|----------------------6-6-7-7-8-8---------------|
A|-------------6-6-8-8----------------------------|
E|-6-6-8-8-9-9------------------------------------|

e|-------------------------------------------|
B|------------------6-6-9-9-10-10-11-11------|
G|---------6-6-8-8---------------------------|
D|-6-6-8-8-----------------------------------|
A|-------------------------------------------|
E|-------------------------------------------|


e|-----------------------------------------------------------|
B|-1h2(x9)-2h4(x9)-4h6(x9)-6h8(x9)-7h9(x9)-9h11(x9)----------|
G|-----------------------------------------------------------|
D|-----------------------------------------------------------|
A|-----------------------------------------------------------|
E|-----------------------------------------------------------|


e|---------------------------------------------------|
B|-666666666777777777999999999101010101010101010-----|
G|---------------------------------------------------|
D|---------------------------------------------------|
A|---------------------------------------------------|
E|---------------------------------------------------|

e|-8p6-----9p6-----8p6-----9p6---8-----------|
B|-----8-------8------8-------8--------------|
G|-------------------------------------------| x2
D|-------------------------------------------|
A|-------------------------------------------|
E|-------------------------------------------|

Chorus ( 3:13 )
______________________________________________

e|--------------------------------------------------------------|
B|--------------------------------------------------------------|
G|--3---------6-------------------------------------------------|
D|--3----4----6----3----4----2----------------------------------| x3
A|--1(x6)-4----4(x6)-3----4----0--------------------------------|
E|-------2(x6)------1(x6)-2(x6)-0(x6)---------------------------|

e|--5/6--5--6--8--9--8--6------0-------|
B|-----------------------------0-------|
G|----------------------------1--------|
D|----------------------------2--------|
A|-------------------------------------|
E|-------------------------------------|
            
Submit corrections

comments powered by Disqus
↑ Back to top | Matchbook Romance Tabs for Monsters. Lyrics for acoustic guitar and electric guitar. 1 Tablatures and chords are parodies/interpretations of the original songs. You may use it for private study, scholarship, research or language learning purposes only