» » »

Matchbook Romance, Monsters Tabs (ver.4)

Artists:  A B C D E F G H I J K L M N O P Q R S T U V W X Y Z # 

Monsters Tabs (ver.4)

Matchbook Romance Tabs
 Rating:
4/5 (9 votes)
Monsters lessons Tabs too difficult? Try these video lessons and learn fast
1
                
Tune down 1/2 step (Eb Ab Db Gb Bb Eb)

Intro/Verse

e|--14--------------14--------------14--------------13--14--15--17--|
B|----------15--------------15--------------15----------------------|
G|------16------16------16------16------16------16------------------|
D|------------------------------------------------------------------|
A|------------------------------------------------------------------|
E|------------------------------------------------------------------|


Verse - Guitar 2 (slide up and down the fretboard)

e|------------------------------------------------------------------|
B|------------------------------------------------------------------|
G|------------------------------------------------------------------|
D|------------------------------------------------------------------|
A|--2/------5\------2/------7\------2/------8\------2/------9\------|
E|------------------------------------------------------------------|


Chorus

    B        G        D        F#       G        E
e|--------------------------------------------------------|
B|--------------------------------------------------------|
G|--4-----------------7-----------------------------------|
D|--4--------5--------7--------4--------5--------2--------|
A|--2-[x8]---5-[x8]---5-[x8]---4-[x8]---5-[x8]---2-[x8]---|
E|-(2)-------3-------(5)-------2--------3--------0--------|


Break

e|------------------------|        |-----------------------------|
B|------------------------|        |-----------------------------|
G|--4----4----4--4--4--4--|        |-----------------------------|
D|--x----x----x--x--x--x--| x3     |--4--2--0--2--0--------------|
A|--2----2----2--2--2--2--|        |-----------------4-----------|
E|------------------------|        |--------------------1~-------|


Solo (Chords shown are same as Chorus) 

e|---------|
B|---------|
G|--9~~~~--|
D|---------|
A|---------|
E|---------|

   B                                    G
e|------------------------------------|---------------------------------10--|
B|------------------------------------|----------------------10^(full)------|
G|-9^(full)9--7-----7~------------7h9-|-9^(full)9--7-----7~-----------------|
D|---------------9-----------7h9------|---------------9---------------------|
A|----------------------7h9-----------|-------------------------------------|
E|------------------------------------|-------------------------------------|

   D                                 F#
e|---------------------------------|---------------------------------|
B|-10~------8~------7~-------------|---------------------------------|
G|--------------------------9~-----|-7~------6~----------------------|
D|---------------------------------|-----------------9~------8~------|
A|---------------------------------|---------------------------------|
E|---------------------------------|---------------------------------|

   G
e|---------------------------------------------------|
B|---------------------------------------------------|
G|---------------------------------------------------|
D|---------------------------------7--7--8--8--9--9--|
A|---------------------7--7--9--9--------------------|
E|-7--7--9--9--10--10--------------------------------|

   E
e|-------------------------------------------------------|
B|-------------------------7--7--10--10--11--11--12--12--|
G|-------------7--7--9--9--------------------------------|
D|-7--7--9--9--------------------------------------------|
A|-------------------------------------------------------|
E|-------------------------------------------------------|

   B
e|---------------------------------------------------------|
B|-0h2h3--3p2p0--0h2h3--3p2p0--0h3h5--5p3p0--0h3h5--5p3p0--|
G|---------------------------------------------------------|
D|---------------------------------------------------------|
A|---------------------------------------------------------|
E|---------------------------------------------------------|

   G
e|---------------------------------------------------------|
B|-0h5h7--7p5p0--0h5h7--7p5p0--0h7h8--8p7p0--0h7h8--8p7p0--|
G|---------------------------------------------------------|
D|---------------------------------------------------------|
A|---------------------------------------------------------|
E|---------------------------------------------------------|

   D
e|--------------------------------------------------------------|
B|-0h8h10-10p8p0-0h8h10-10p8p0-0h10h11-11p10p0-0h10h11-11p10p0--|
G|--------------------------------------------------------------|
D|--------------------------------------------------------------|
A|--------------------------------------------------------------|
E|--------------------------------------------------------------|

   F#
e|---------------------------------------------------|
B|-7777777778888888810101010101010101111111111111111-|
G|---------------------------------------------------|
D|---------------------------------------------------|
A|---------------------------------------------------|
E|---------------------------------------------------|

   G
e|-9p7-----10p7-----9p7-----10p7-----9~---|
B|------0--------0-------0--------0-------|
G|----------------------------------------|
D|----------------------------------------|
A|----------------------------------------|
E|----------------------------------------|

   E
e|-9p7-----10p7-----9p7-----10p7-----9~---|
B|------0--------0-------0--------0-------|
G|----------------------------------------|
D|----------------------------------------|
A|----------------------------------------|
E|----------------------------------------|
            
Submit corrections

comments powered by Disqus
↑ Back to top | Matchbook Romance Tabs for Monsters. Lyrics for acoustic guitar and electric guitar. 1 Tablatures and chords are parodies/interpretations of the original songs. You may use it for private study, scholarship, research or language learning purposes only