» » »

Matchbook Romance, Lovers And Liers Tabs (ver.1)

Artists:  A B C D E F G H I J K L M N O P Q R S T U V W X Y Z # 

Lovers And Liers Tabs (ver.1)

Matchbook Romance Tabs
Rating:
0/5 (0 votes)
Lovers And Liers lessons Tabs too difficult? Try these video lessons and learn fast
                This band is Great yo...Thrice is good too...

Intro
guitar 1
E|--2-2-2-2-----------2-2-2-2---------------0-0-0-0---------|
B|-----------4-4-4-4-----------4-4--5p4-4-----------4-4-4---|
G|-4-4-4-4--4-4-4-4--3-3-3-3--3-3-3----3---1-1-1-1-1-1-1----|
D|----------------------------------------------------------|3x
A|----------------------------------------------------------|
E|----------------------------------------------------------|

Chorus
E|----------------------------------------------------------------|
B|----------------------------------------------------------------|
G|-44444444444444444444-------------------------------------------|
D|-44444444444444444444--44444444444444444444--2222222222222222222|
A|-22222222222222222222--44444444444444444444--2222222222222222222|
E|-----------------------22222222222222222222--0000000000000000000|

solo
E|------------------|
B|---------------4--|
G|--4-3p4-3-4-3p4---|
D|-2-2-----2-2------|
A|------------------|
E|------------------|
            
Submit corrections

comments powered by Disqus
↑ Back to top | Matchbook Romance Tabs for Lovers And Liers. Lyrics for acoustic guitar and electric guitar. Tablatures and chords are parodies/interpretations of the original songs. You may use it for private study, scholarship, research or language learning purposes only