» » »

Matchbook Romance, Lovers And Liars Chords (ver.1)

Artists:  A B C D E F G H I J K L M N O P Q R S T U V W X Y Z # 

Lovers And Liars Chords (ver.1)

Matchbook Romance Tabs
 Rating:
4/5 (4 votes)
Lovers And Liars lessons Tabs too difficult? Try these video lessons and learn fast
                Matchbook Romance

Key: B

Tuning: Standard EADGBe

Chords used:
B -     x24442
Ebm -   x68876
E -     022100
F# -    244322
Abm -   466444
F#/Bb - x143xx


Intro: B--Ebm--E-G#m-

Guitar 2:
e|---2---2---2---2-------------------2---2---2---2-----------------|
B|-------------------4---4---4---4-------------------4---4---4---4-|
G|-4---4---4---4---4---4---4---4---3---3---3---3---3---3---3---3---|
D|-----------------------------------------------------------------|
A|-----------------------------------------------------------------|
E|-----------------------------------------------------------------|

e|---0---0---0---0-----------------|
B|-------------------4---4---4---4-|
G|-----------------1---1---1---1---|
D|-2---2---2---2-------------------|
A|---------------------------------|
E|---------------------------------|


Verse 1:
E
  Let's start out
           Abm
What did I expect?
You're no good at lying
                F#     E
and I'm no good at comebacks
You're so untouchable
          Abm
I'm oh-so-terrible at this
I'm terrible at this you know


Chorus 1:
B                  F#
  Don't hold this against me
                      E
I've already said I'm sorry


Verse 2:
B
  And I bet you've got
every word I said
  Abm
memorized in your head
E
  And you'll use every
one of them
And you'll use
             B
every one of them
 F#/Bb
against me


Chorus 2:
B                F#
Don't hold this against me
                      E
I've already said I'm sorry
B             F#/Bb
Tell all your friends about me
B                F#
Don't hold this against me
                      E
I've already said I'm sorry


Interlude: E--E(plucking)-G#m

Guitar 2:
e|--------------------|
B|------------------4-|
G|-4--3h4----4--3h4---|
D|--------4-----------| x4
A|--------------------|
E|--------------------|


Bridge:
B
  I hope you choke
on every word
you spoke when you
were screaming at me
Abm
  I realize how many times
you tried but that's 
wishful thinking
E
  All I want is an apology
for what you did and 
how you treated me
       B
Get me far away or at 
F#/Bb
least as far as 
this car will take me
(Tell all your
friends about me)
(Repeat)


(Repeat Chorus 2)
            
Submit corrections

comments powered by Disqus
↑ Back to top | Matchbook Romance Chords for Lovers And Liars. Lyrics for acoustic guitar and electric guitar. Tablatures and chords are parodies/interpretations of the original songs. You may use it for private study, scholarship, research or language learning purposes only