» » »

I Wish You Were Here Tabs (ver.3)

Artists:  A B C D E F G H I J K L M N O P Q R S T U V W X Y Z # 

I Wish You Were Here Tabs (ver.3)

Matchbook Romance
Rating:
0/5 (0 votes)

Tabs too difficult? Try these video lessons and learn fast.
                I Wish You Were Here

I think is 100% and I used the correct tuning

Verse 1:
    G                        Bm
eb|-10----10----10----10----|-2----------2----------2----------2---------|
Bb|---12----12----12----12--|---0h2-3-0----0h2-3-0----0h2-3-0----0h2-3-0-|
Gb|-----0-----0-----0-----0-|--------------------------------------------|
Db|-------------------------|--------------------------------------------|
Ab|-------------------------|--------------------------------------------|
Eb|-------------------------|--------------------------------------------|
    Em                         C           D
eb|--7-----7-----7-----7-----|-3-----3-----5-----5-----|
Bb|----8-----8-----8-----8---|---5-----5-----7-----7---|
Gb|------0-----0-----0-----0-|-----0-----0-----0-----0-|
Db|--------------------------|-------------------------|
Ab|--------------------------|-------------------------|
Eb|--------------------------|-------------------------|
    G                           Bm
eb|-10----10---12-10----10----|-2----------2----------2----------2---------|
Bb|---12----12------12----12--|---0h2-3-0----0h2-3-0----0h2-3-0----0h2-3-0-|
Gb|-----0-----0-------0-----0-|--------------------------------------------|
Db|---------------------------|--------------------------------------------|
Ab|---------------------------|--------------------------------------------|
Eb|---------------------------|--------------------------------------------|
     Em                         C           D
eb|--7-----7----8-7-----7-----|-3-----3-----5-----5-----|
Bb|----8-----8------8-----8---|---5-----5-----7-----7---|
Gb|------0-----0------0-----0-|-----0-----0-----0-----0-|
Db|---------------------------|-------------------------|
Ab|---------------------------|-------------------------|
Eb|---------------------------|-------------------------|


Pre-Chorus 1:
   Em     D     C           Cm          D                                      
eb|-7-----5-----3-----3-----3-----3-----5-----5-----5-----5-----|
Bb|---8-----7-----5-----5-----4-----4-----7-----7-----7-----7---|
Gb|-----0-----0-----0-----0-----0-----0-----0-----0-----0-----0-|
Db|-------------------------------------------------------------|
Ab|-------------------------------------------------------------|
Eb|-------------------------------------------------------------|


Chorus:
   Bm           C            4x
eb|----------------0---0---0--|-----------|
Bb|---------------------------|-----------|
Gb|-11-----11-12-9---9---9----|-----------|
Db|---12----------------------|-----------|
Ab|-----10--------------------|-----------|
Eb|---------------------------|-8-7---5-3-|

Verse 2:
    G                          Bm
eb|-10----10----10--12-10----|-2----------2----------2----------2---------|
Bb|---12----12----12-----12--|---0h2-3-0----0h2-3-0----0h2-3-0----0h2-3-0-|
Gb|-----0-----0-----0------0-|--------------------------------------------|
Db|--------------------------|--------------------------------------------|
Ab|--------------------------|--------------------------------------------|
Eb|--------------------------|--------------------------------------------|
    Em                          C           D
eb|--7-----7-----7----8-7-----|-3-----3-----5-----5-----|
Bb|----8-----8-----8------8---|---5-----5-----7-----7---|
Gb|------0-----0-----0------0-|-----0-----0-----0-----0-|
Db|---------------------------|-------------------------|
Ab|---------------------------|-------------------------|
    G                           Bm
eb|-10----10---12-10----10----|-2----------2----------2----------2---------|
Bb|---12----12------12----12--|---0h2-3-0----0h2-3-0----0h2-3-0----0h2-3-0-|
Gb|-----0-----0-------0-----0-|--------------------------------------------|
Db|---------------------------|--------------------------------------------|
Ab|---------------------------|--------------------------------------------|
Eb|---------------------------|--------------------------------------------|
     Em                         C           D
eb|--7-----7----8-7-----7-----|-3-----3-----5-----5-----|
Bb|----8-----8------8-----8---|---5-----5-----7-----7---|
Gb|------0-----0------0-----0-|-----0-----0-----0-----0-|
Db|---------------------------|-------------------------|
Ab|---------------------------|-------------------------|

Pre-Chorus 2:
    Em    D     C               Cm          D
eb|-7-----5-----3-----3---------3-----3-----5-----5-----5-----5-----|
Bb|---8-----7-----5-----5---5-----4-----4-----7-----7-----7-----7---|
Gb|-----0-----0-----0-----0---0-----0-----0-----0-----0-----0-----0-|
Db|-----------------------------------------------------------------|
Ab|-----------------------------------------------------------------|
Eb|-----------------------------------------------------------------|
    Em    D     C               Cm          D
eb|-7-----5-----3-----3---------3-----3-----5-----5--------5-----5-----|
Bb|---8-----7-----5-----5---5-----4-----4-----7-----7---7----7-----7---|
Gb|-----0-----0-----0-----0---0-----0-----0-----0-----0---0----0-----0-|
Db|--------------------------------------------------------------------|
Ab|--------------------------------------------------------------------|
Eb|--------------------------------------------------------------------|


Chorus:
   Bm         C              4x
eb|----------------0---0---0--|-----------|
Bb|---------------------------|-----------|
Gb|-11-----11-12-9---9---9----|-----------|
Db|---12----------------------|-----------|
Ab|-----10--------------------|-----------|
Eb|---------------------------|-8-7---5-3-|
            
Tabs too difficult? Try these video lessons and learn fast.




comments powered by Disqus
↑ Back to top | Tablatures and chords are parodies/interpretations of the original songs. You may use it for private study, scholarship, research or language learning purposes only