» » »

I Wish You Were Here Tabs (ver.2)

Artists:  A B C D E F G H I J K L M N O P Q R S T U V W X Y Z # 

I Wish You Were Here Tabs (ver.2)

Matchbook Romance
Rating:
4/5 (3 votes)

Hard to play? Try these video lessons and learn fast.
                album:voices
tunning:standard
key:F#

i now know that MR play in Eb-Ab-Db-Gb-Bb-Eb tunning but when i tabbed this i didn't 
much about MR so i tabbed it in standard tunning

to here it is in standard tunning:

verse 1:
e------------------------------------------|
b-14--------14--------14--------14---------|
g----15--------15--------15--------15------|
d-------16--------16--------16--------16---|
a------------------------------------------|
e------------------------------------------|

e------------------------------------------|
b-6----------6---------6---------6---------|
g------6-6-------6-6-------6-6-------6-6---|
d----8-----8---8-----8---8-----8---8-----8-|
a------------------------------------------|
e------------------------------------------|

e------------------------------------------|
b-11--------11--------11--------11---------|
g----11--------11--------11--------11------|
d-------11--------11--------11--------11---|
a------------------------------------------|
e------------------------------------------|

e------------------------------------------|
b-7---------7---------9---------9----------|
g----8---------8---------10--------10------|
d-------9---------9---------11--------11---|
a------------------------------------------|
e------------------------------------------|

e------------------------------------------|
b-14--------14----16--14--------14---------|
g----15------------------15--------15------|
d-------16-----16-----------16--------16---|
a------------------------------------------|
e------------------------------------------|

e------------------------------------------|
b-6----------6---------6---------6---------|
g------6-6-------6-6-------6-6-------6-6---|
d----8-----8---8-----8---8-----8---8-----8-|
a------------------------------------------|
e------------------------------------------|

e------------------------------------------|
b-11--------11----12---11--------11--------|
g----11-------------------11--------11-----|
d-------11-----11------------11--------11--|
a------------------------------------------|
e------------------------------------------|

e------------------------------------------|
b-7---------7----------9---------9---------|
g----8---------8----------10--------10-----|
d-------9---------9----------11--------11--|
a------------------------------------------|
e------------------------------------------|

bridge:
e------------------------------------------|
b-11--------9----------7---------7---------|
g----11--------10---------8---------8------|
d-------11--------11---------9---------9---|
a------------------------------------------|
e------------------------------------------|

e-------------------------------------------------------------|
b-7---------7----------9---------9---------9---------9--------|
g----7---------7----------10--------10--------10--------10----|
d-------9---------9----------11--------11--------11--------11-|
a-------------------------------------------------------------|
e-------------------------------------------------------------|

chorus:
e----------------------------------------|
b-6------6/7\4--------4----------4-------|
g----6-----------8---------8-----------8-|
d------8---------------------------------|
a----------------------------------------|
e----------------------------------------|

e----------------------------------------|
b-6------6/7\4--------4----------4-------|
g----6-----------8---------8-----------8-|
d------8---------------------------------|
a----------------------------------------|
e----------------------------------------|

e----------------------------------------|
b-6------6/7\4--------4----------4-------|
g----6-----------8---------8-----------8-|
d------8---------------------------------|
a----------------------------------------|
e----------------------------------------|

e----------------------------------------|
b-6------6/7\4--------4----------4-------|
g----6-----------8---------8-----------8-|
d------8---------------------------------|
a----------------------------------------|
e----------------------------------------|

e------------------|
b------------------|
g-4----3-----------|
d-----------6----4-|
a-2----1-----------|
e-----------4----2-|


verse 2:
e------------------------------------------|
b-14--------14----16----14--------14-------|
g----15--------------------15--------15----|
d-------16-----16-------------16--------16-|
a------------------------------------------|
e------------------------------------------|

e------------------------------------------|
b-6----------6---------6---------6---------|
g------6-6-------6-6-------6-6-------6-6---|
d----8-----8---8-----8---8-----8---8-----8-|
a------------------------------------------|
e------------------------------------------|

e------------------------------------------|
b-11--------11----12--11--------11---------|
g----11------------------11--------11------|
d-------11-----11-----------11--------11---|
a------------------------------------------|
e------------------------------------------|

e------------------------------------------|
b-7---------7---------9---------9----------|
g----8---------8---------10--------10------|
d-------9---------9---------11--------11---|
a------------------------------------------|
e------------------------------------------|

e------------------------------------------|
b-14--------14----16--14--------14---------|
g----15------------------15--------15------|
d-------16-----16-----------16--------16---|
a------------------------------------------|
e------------------------------------------|

e------------------------------------------|
b-6----------6---------6---------6---------|
g------6-6-------6-6-------6-6-------6-6---|
d----8-----8---8-----8---8-----8---8-----8-|
a------------------------------------------|
e------------------------------------------|

e------------------------------------------|
b-11--------11---------11----12--11--------|
g----11--------11--------11---------11-----|
d-------11--------11-------11----------11--|
a------------------------------------------|
e------------------------------------------|

e------------------------------------------|
b-7---------7----------9---------9---------|
g----8---------8----------10--------10-----|
d-------9---------9----------11--------11--|
a------------------------------------------|
e------------------------------------------|

bridge:
e------------------------------------------|
b-11--------9----------7---------7---------|
g----11--------10---------8---------8------|
d-------11--------11---------9---------9---|
a------------------------------------------|
e------------------------------------------|

e-------------------------------------------------------------|
b-7---------7----------9---------9---------9---------9--------|
g----7---------7----------10--------10--------10--------10----|
d-------9---------9----------11--------11--------11--------11-|
a-------------------------------------------------------------|
e-------------------------------------------------------------|

e------------------------------------------|
b-11--------9----------7---------7---------|
g----11--------10---------8---------8------|
d-------11--------11---------9---------9---|
a------------------------------------------|
e------------------------------------------|

e-------------------------------------------------------------|
b-7---------7----------9---------9---------9---------9--------|
g----7---------7----------10--------10--------10--------10----|
d-------9---------9----------11--------11--------11--------11-|
a-------------------------------------------------------------|
e-------------------------------------------------------------|

chorus:
e----------------------------------------|
b-6------6/7\4--------4----------4-------|
g----6-----------8---------8-----------8-|
d------8---------------------------------|
a----------------------------------------|
e----------------------------------------|

e----------------------------------------|
b-6------6/7\4--------4----------4-------|
g----6-----------8---------8-----------8-|
d------8---------------------------------|
a----------------------------------------|
e----------------------------------------|

e----------------------------------------|
b-6------6/7\4--------4----------4-------|
g----6-----------8---------8-----------8-|
d------8---------------------------------|
a----------------------------------------|
e----------------------------------------|

e----------------------------------------|
b-6------6/7\4--------4----------4-------|
g----6-----------8---------8-----------8-|
d------8---------------------------------|
a----------------------------------------|
e----------------------------------------|

e------------------|
b------------------|
g-4----3-----------|
d-----------6----4-|
a-2----1-----------|
e-----------4----2-|

please rate and comment!
            
Hard to play? Try these video lessons and learn fast. | Correct




comments powered by Disqus
↑ Back to top | Tablatures and chords are parodies/interpretations of the original songs. You may use it for private study, scholarship, research or language learning purposes only