» » »

Machines Tabs (ver.2)

Artists:  A B C D E F G H I J K L M N O P Q R S T U V W X Y Z # 

Machines Tabs (ver.2)

Mason Jennings
Rating:
0/5 (0 votes)

Hard to play? Try these video lessons and learn fast.
                Mason Jennings
180* south soundtrack

tuned down ½ step
E= D#
A= G# or Ab
D= C# or Db
G= A# or Gb
B= Bb
E= D#

intro riff
                                                             D  Am
e-------------------------------------------------------------0--0------------|
B-3-----------------------------------------------------------2--1------------|
G---2-5-4-2---2-----------------------------------------------3--2------------|
D-----------5----4--4--5--2--2---2/4------4\2-----------------2--2------------|
A------------------------------5-----5-(5)---3--3--2--3/5--0--0--0--0-2-3-2-3-|
E-----------------------------------------------------------------------------|


verses


D          Am             D             Am             D             Am
will you remember me the way I was when I was free an open book that we could
        D
read together

(repeat this progression for every line until later and use this sometimes)

D         Am     C        D             Am     C   D              Am     C
will we remember this the way it was or how it is what we love or how we miss
D
forever

(later, use this progression)

    D       Am  C1       D       Am  C1       D       Am  C1    D      Am
....forever...  one fine morning,    one fine morning,    the machines
          C1     D
are gonna cut us down


outro

     D   D        Am      C1
e----2---2-p-0----0--------0----------------------------------------------|
B----3---3--------1--------8----------------------------------------------|
G----2---2--------2--------0----------------------------------------------|
D----0---0--------2--------9----------------------------------------------|
A----0---0--------0--------10---------------------------------------------|
E-------------------------------------------------------------------------|

Chords used

     D    Am    C   C1
e ---2----0-----0----0------------------------------------------------------|
B----3----1-----1----8------------------------------------------------------|
G----2----2-----0----0------------------------------------------------------|
D----0----2-----2----9------------------------------------------------------|
A----0----0-----3----10-----------------------------------------------------|
E---------------------------------------------------------------------------|
            
Hard to play? Try these video lessons and learn fast. | Correct




comments powered by Disqus
↑ Back to top | Tablatures and chords are parodies/interpretations of the original songs. You may use it for private study, scholarship, research or language learning purposes only