» » »

East Of Eden Tabs (ver.1)

Artists:  A B C D E F G H I J K L M N O P Q R S T U V W X Y Z # 

East Of Eden Tabs (ver.1)

Mason Jennings
Rating:
0/5 (0 votes)

Hard to play? Try these video lessons and learn fast.
                -------------------------------------------------------------------------------
-------------------------------------------------------------------------------

Once again thanks to Barry for pointing out this great song by this wonderful
artist! Wouldn't have discovered it without you mate

Cheers :)


Tuning: C# G# C# F# A# D#


I've tabbed out the intro, but the verse and chorus are made up of almost
exactly the same thing, so just listen close for some of the changes in the
order of the chords/riffs and you'll be fine! Though if you still want some of
the chord progressions from the verse/chorus, let me know and I'll tab
those out as well!


INTRO/VERSe/CHORUS
							   [Not 100% sure]
D#|------------------------0-2---0-2-------------------------0-3--2-3---------|
A#|------------------------3-3---3-3-------------------------3-3--3-3---------|
F#|------------------------2-2---2-2-------------------------4-4--4-4---------|
C#|---0-2-2h4--2-0-----0~--0-0---0-0----0-2-2h4--2-0-----2~--2-2--2-2---------|
G#|-0--------------2-0----------------0--------------2-0----------------------|
C#|---------------------------------------------------------------------------|

D#|-------------------0-3--0-3-----------------------0-2--0-2-----------------|
A#|-------------------2-2--2-2-----------------------3-3--3-3-----------------|
F#|-------2-0------0--0-0--0-0-----------2-----------2-2--2-2-----------------|
C#|-2-2-4------4-2----2-2--2-2---2-2-2/4---4--2-0-4--0-0--0-0-----------------|
G#|-------------------0-0--0-0------------------------------------------------|
C#|---------------------------------------------------------------------------|
							       [Not 100% sure]
D#|--------------------------3-0-----------------------------------0----------|
A#|-------2/3~p0-------------0-0-----------------------------------------7-\--|
F#|2---4---------2-----------0-0--------------------2~------------------(6-\)-|
C#|----------------4--2-0-------------0-----2/4-2-4-----4--2-0----0---4--4-\--|
G#|-----------------------2~-----0--2----2-------------------------------5-\--|
C#|-------------------------------------------------------------0-------------|
				  [Had to keep short for tab, but let 0~ ring]
D#|--------------------------3-0----------------------------------------------|
A#|-------2/3~p0-------------0-0----------------------------------2------2----|
F#|2---4---------2-----------0-0--------------------2~----------------2------2|
C#|----------------4--2-0-------------0-----2/4-2-4-----4--2-0------2-2h4--4--|
G#|-----------------------2~-----0--2----2----------------------0~------------|
C#|---------------------------------------------------------------------------|

OUTRO

D#|--------------------------------------------9-----10-------------------------------|
A#|----2-------2-----------------------------10----10---------------------------------|
F#|--------2-------------------------------12----11-----------------------------------|
C#|------2-2h4---4--0-----------------------------------------------------------------|
G#|0--------------------4------0------------------------------------------------------|
C#|-------------------------4------0--------------------------------------------------|


| /  slide up
| \  slide down
| h  hammer-on
| p  pull-off
| ~  vibrato/let ring
| +  harmonic
| x  Mute note
===============================================================================
            
Hard to play? Try these video lessons and learn fast. | Correct




comments powered by Disqus
↑ Back to top | Tablatures and chords are parodies/interpretations of the original songs. You may use it for private study, scholarship, research or language learning purposes only