» » »

Mashina, Rikud Ha Mehona Bass tabs (ver.1)

Artists:  A B C D E F G H I J K L M N O P Q R S T U V W X Y Z # 

Rikud Ha Mehona Bass tabs (ver.1)

Mashina Tabs
 Rating:
4/5 (4 votes)
Rikud Ha Mehona lessons Tabs too difficult? Try these video lessons and learn fast
                
This is not 100% correct but it's pretty close (I'm not so sure about the 3rd line
where he plays the open A string and also when he moves from F to E on the main part,
the transition is the way I improvise it). All the parts are in chronological order,
some of them will repeat later through the song.

G---------------|---------|-----------------------------------------|
D-2-1-0---------|---------|---------1-1-0---1-1-0-------------------|
A-------4-3-2---|-----7-7-|-----3-3-------3-------3-----3-3-----2-2-|
E-------------0-|-5-5-----|-1-1---------------------1-1-----0-0-----|

G-------------|-------------|-------------|-------------||---------------|
D-------------|-------------|-------------|-------------||-2-1-0---------|
A---------6/7-|---------7\6-|---------6/7-|-----6/7-6/7-||-------4-3-2---|
E-4/5-7/8-----|-4/5-7/8-----|-4/5-7/8-----|-4/5---------||-------------5-|

G------------9-|
D--7--10--9----|
A-----------7--|
E-5--8---7-----|

G-----------------|----------------|-----------------7-7-------------|
D-----------------|---------7-7----|-----6-6-7-7-9-9-----9-9-7-7-6-6-|
A---------7-7-----|-5-5-8-8----8-8-|-7-7-----------------------------|
E-5-5-8-8-----8-8-|----------------|---------------------------------|

G--------------------------|
D--------------------------|
A------7~~~-------7~~~-----|
E-0~~~------0~~~------0~~~-|
            
Submit corrections

comments powered by Disqus
↑ Back to top | Mashina Bass for Rikud Ha Mehona. Lyrics for acoustic guitar and electric guitar. Tablatures and chords are parodies/interpretations of the original songs. You may use it for private study, scholarship, research or language learning purposes only