» » »

Rakevet Laila Bass tabs (ver.1)

Artists:  A B C D E F G H I J K L M N O P Q R S T U V W X Y Z # 

Rakevet Laila Bass tabs (ver.1)

Mashina
Rating:
0/5 (0 votes)

Hard to play? Try these video lessons and learn fast.
                
Intro (Use palm-muting) 0:15:

G-------------------------------|
D-------------------------------|
A-------------------------------|
E-5-5-5-5-5-5-5-6-6-6-X-3-3-3-3-|

Guitar riff-part 0:22, 1:01, 2:00:

G---------------------------------|
D---------------------------------|
A-----6-7-----6-7-----8-8-----5-5-|
E-5-5-----5-5-----6-6-----3-3-----|

Verse 0:35, 1:14:

G---------------------------------|---------------------------------|
D---------------------------------|---------------------------------|
A-----6-7-----6-7-----8-8-----8-8-|-----6-7-----6-7-----8-8-----5-5-|
E-5-5-----5-5-----6-6-----6-6-----|-5-5-----5-5-----6-6-----3-3-----|

Shift #1 0:48:

G--------------------------------|
D--------------------------------|
A--------------------------------|
E-6--6-6--5--5-5--6--6-6--5--5-5-|

Fill #1 0:54:

G---------------------------------------|
D---------------------------------------|
A-x-x-x-x-x-x-x-x-x-x-x-x-x-x-x-x-x-x-x-|
E---------------------------------------|

Shift #2 1:27:

G---------------------------------------------------|
D---------------------------------------------7-----|
A-------------------------------------------------7-|
E-6--6-6--5--5-5--6--6-6--6--6-6--5--5-5--5-5---5---|

Main-riff after Shift #2 1:37, 1:50, 2:34:

G---------------------------------|
D---------------------------8---7-|
A-----6-7-----6-7-----7-8---------|
E-5-5-----5-5-----6-6-----6---6---|

Fill #2 1:48:

G---------------|
D-------------7-|
A-----------7---|
E-17\-----------|

Shift #3 2:13:

G------------------------------------|
D------------------------------------|
A------------------------------------|
E-5--5-5--6--6-6--5--5-5--6--6-3-6-5-|

Ending 2:48:

G---------------------------------|
D---------------------------8---7-| x3
A-----6-7-----6-7-----7-8---------|
E-5-5-----5-5-----6-6-----6---6---|

G-----------------------------|
D-----------------------------|
A-----6-7-----6-7-----7-----7-| x1
E-5-5-----5-5-----5-5---5-5---|

G---------------------------------|
D---------------------------8---7-| x3
A-----6-7-----6-7-----7-8---------|
E-5-5-----5-5-----6-6-----6---6---|

G--------------|
D--------------|
A--------------| x1
E-5--5-5-5-5-5-|

G---------------------------------|
D---------------------------8---7-| x3
A-----6-7-----6-7-----7-8---------|
E-5-5-----5-5-----6-6-----6---6---|

G--------------|
D--------------|
A--------------| x1
E-5--5-5-5-5-5-|

G---------------------------------|
D---------------------------8---7-| x3
A-----6-7-----6-7-----7-8---------|
E-5-5-----5-5-----6-6-----6---6---|

G--------------|
D--------------|
A--------------| x1
E-5--5-5-5-5-5-|
            
Hard to play? Try these video lessons and learn fast. | Correct




comments powered by Disqus
↑ Back to top | Tablatures and chords are parodies/interpretations of the original songs. You may use it for private study, scholarship, research or language learning purposes only