» » »

Mechonit Bass tabs (ver.1)

Artists:  A B C D E F G H I J K L M N O P Q R S T U V W X Y Z # 

Mechonit Bass tabs (ver.1)

Mashina
Rating:
0/5 (0 votes)

Hard to play? Try these video lessons and learn fast.
                Sometimes they play this song two half-steps lower, you'll need to shift everything
two frets back. This is how they played it on the original recording.

Main riff:

G---------------------------|
D---------------4-----------|
A-5-5-5---3-4-5---5-3---3-4-|
E-------5-------------5-----|

Chorus:

G------------------|
D------------------|
A-5-5-5-5-5-5-3-3--|
E--------------5-5-|

C-part:

G-------------------------------------------------|
D-----4-7-4---------------6-9-6-------------------|
A-5-5-----------2-5-2-7-7-----------4-7-4---4-7-4-|
E-----------3-3-----------------5-5-------5-------|

1st:
G--------------------------------------|
D--------------------------------------|
A---2-5-2---1-2-4-4-2-1-1-1---1-2-4-4/-|
E-3-------2-----------------2----------|

2nd:
G----------------------------------------------|
D----------------------------------------------|
A---2-5-2---1-4-1--------------4-7-4---2-5-2---|
E-3-------2-------2--2-2-3-4-5-------3-------2-|

Outro shift (It goes up a perfect fourth):

G---------------2-----------|
D-5-5-5---3-4-5---5-3---3-4-|
A-------5-------------5-----|
E---------------------------|
            
Hard to play? Try these video lessons and learn fast. | Correct




comments powered by Disqus
↑ Back to top | Tablatures and chords are parodies/interpretations of the original songs. You may use it for private study, scholarship, research or language learning purposes only