» » »

Mashina, Lama Li Politika Achshav Tabs (ver.1)

Artists:  A B C D E F G H I J K L M N O P Q R S T U V W X Y Z # 

Lama Li Politika Achshav Tabs (ver.1)

Mashina Tabs
 Rating:
4/5 (4 votes)
Lama Li Politika Achshav lessons Tabs too difficult? Try these video lessons and learn fast
                Intro:
		           wwwwwww                           Gm(distorsion)
e:------------------------------------------6h8/10~-10p8--------3-|
B:---------------------------------------------------------11-10--3-|
G:--3-5-5^^----5p3-3/2-----------------------------------------3-|
D:5------------------5--------5h75/35---------------------------5-|
A:------------------------------------------------------------------5-|
E:------------------------------------------------------------------3-|
w=weeker.sturm the acord slowly.
Verse:
Gm,Bb(688766),Dm(on am),F          }
Gm,Bb(on E),Dm,F(twice)            }
Bb(on E),Dm(on am),F,F }X2(ahoty)  }x2
Chours:
Gm,Bb(on E),G#,Cm,
Gm,Bb,Dm,C,Dm,C,Dm,C
Cm,D(on A),D(on A)
Verse2:(single sturm)               riff1:       
Gm,Bb(688766),Dm(on am),F(riff1)    
Gm,Bb(688766),Dm(on am),F(riff2)    
Bb(on E),Dm(on am),F(riff3),F       
Bb(on E),Dm(on am),F
(bridge)
(chours)
Verse 3:
						x2|
e:11--11-11-13-11------------------------11-13--13|
B:-------------------14-11--11-11-11-11--14--14--|
G:-------------------------------------------------------|
D:-------------------------------------------------------|
A:-------------------------------------------------------|
E:--------------------------------------------------------
                                                           X2
e:-------------11-13-1413----13|131313131313|
B:--14-11-14--------------------14---|------------|
G:---------------------------------------|------------|
D:---------------------------------------|------------|
A:---------------------------------------|------------|
E:---------------------------------------|------------|

Outro:acording to the disk
e:---------------------|
B:--------------------|
G:-355^----5p3-32-|
D:5--------------5---|
A:--------------------|
E:---------------------|
now a little guitar run. note:* means that you dont sturm the string
you kinda hammer the string and make a pull off.
e:3365-3--3--3----------------------------|
B:-----6--6-6p4p3-3-6p4------8p6h8p6|
G:------------------5------5p3-3----------|
D:-------------------------------------------|
A:-------------------------------------------|
E:--------------------------------------------|

Intro:
		           wwwwwww                           Gm(distorsion)
e:------------------------------------------6h8/10~-10p8--------3-|
B:---------------------------------------------------------11-10--3-|
G:--3-5-5^^----5p3-3/2-----------------------------------------3-|
D:5------------------5--------5h75/35---------------------------5-|
A:------------------------------------------------------------------5-|
E:------------------------------------------------------------------3-|
w=weeker.sturm the acord slowly.
Verse:
Gm,Bb(688766),Dm(on am),F          }
Gm,Bb(on E),Dm,F(twice)            }
Bb(on E),Dm(on am),F,F }X2(ahoty)  }x2
Chours:
Gm,Bb(on E),G#,Cm,
Gm,Bb,Dm,C,Dm,C,Dm,C
Cm,D(on A),D(on A)
Verse2:(single sturm)               riff1:       
Gm,Bb(688766),Dm(on am),F(riff1)    
Gm,Bb(688766),Dm(on am),F(riff2)    
Bb(on E),Dm(on am),F(riff3),F       
Bb(on E),Dm(on am),F
(bridge)
(chours)
Verse 3:
						x2|
e:11--11-11-13-11------------------------11-13--13|
B:-------------------14-11--11-11-11-11--14--14--|
G:-------------------------------------------------------|
D:-------------------------------------------------------|
A:-------------------------------------------------------|
E:--------------------------------------------------------
                                                           X2
e:-------------11-13-1413----13|131313131313|
B:--14-11-14--------------------14---|------------|
G:---------------------------------------|------------|
D:---------------------------------------|------------|
A:---------------------------------------|------------|
E:---------------------------------------|------------|

Outro:acording to the disk
e:---------------------|
B:--------------------|
G:-355^----5p3-32-|
D:5--------------5---|
A:--------------------|
E:---------------------|
now a little guitar run. note:* means that you dont sturm the string
you kinda hammer the string and make a pull off.
e:3365-3--3--3----------------------------|
B:-----6--6-6p4p3-3-6p4------8p6h8p6|
G:------------------5------5p3-3----------|
D:-------------------------------------------|
A:-------------------------------------------|
E:--------------------------------------------|
            
Submit corrections

comments powered by Disqus
↑ Back to top | Mashina Tabs for Lama Li Politika Achshav. Lyrics for acoustic guitar and electric guitar. Tablatures and chords are parodies/interpretations of the original songs. You may use it for private study, scholarship, research or language learning purposes only