» » »

Mashina, Badereh El Ha Yam Bass tabs (ver.1)

Artists:  A B C D E F G H I J K L M N O P Q R S T U V W X Y Z # 

Badereh El Ha Yam Bass tabs (ver.1)

Mashina Tabs
 Rating:
4/5 (4 votes)
Badereh El Ha Yam lessons Tabs too difficult? Try these video lessons and learn fast
                
Intro:

G----------------------------------------------|
D------6h7-7-6h7------6h7-7-6------------------|
A-4/5------------4/5-------------------------3-|
E-----------------------------6-6--5-6-6-5-6---|

Intro (Guitar solo):

G---------------------------------------------------------|
D------6h7-7-6h7------6h7-7-6------6h7-7-6h7------6h7-7-6-|
A-4/5------------4/5----------4/5------------4/5----------|
E---------------------------------------------------------|

G-----------------|------------------------6h7-|
D-----------------|------6h7-7-6h7-----6h7-----|
A-----------------|-4/5------------4/5---------|
E-3-3-1-3-3-1-3-5-|----------------------------|

Intro (Accordion solo):

G------------7p6-7-------------------------7p6-7-------------------|
D------------------------------------------------------------------|
A-5-5--3-5-5--------------------5-5--3-5-5-----------------------3-|
E-------------------6-6--5-6-6--------------------6-6--5-6-6-5-6---|

Verse:

G----------------------------------------------|
D------6h7-7-6h7------6h7-7-6------------------|
A-4/5------------4/5-------------------------3-|
E-----------------------------6-6--5-6-6-5-6---|

G---------------------------------------------|
D------6h7-7-6h7------6h7-7-6-----------------|
A-4/5------------4/5--------------------------|
E-----------------------------6-6--5--3--1--0-|

G----------------------------------------------|
D------6h7-7-6h7------6h7-7-6------------------|
A-4/5------------4/5-------------------------3-|
E-----------------------------6-6--5-6-6-5-6---|

G--------------------------6h7------------|
D-------6h7-7-6h7------6h7----------------|
A--4/5------------4/5---------------8-----|
E------------------------------6-6-6--6-5-|

Chorus:

G----X---X--X-----------------|
D--------------------X---X----|
A-5-X-5-X--5------------------|
E------------5-3--3-X-3-X-3-5-|

Guitar solo (play the first part of the Intro before you begin this part):

G-------------------------------------------------------------|
D-------------------------------------------------------------|
A-------------------------------------------------------------|
E-6--6-6--5--5-5--3--3-3-3--3-5-6--6-6--5--5-5--3/10-15-15-15-|

C-part:

G----------7p6-7--------------------------7p6-7-------------------|
D-----------------------------------------------------------------|
A-5-5--5-5-------------------3-5-5--3-5-5-----------------------3-|
E-----------------6-6--5-6-6---------------------6-6--5-6-6-5-6---|

G------------7p6-7------------------------------------------|
D-----------------------------------------------------------|
A-5-5--3-5-5-----------------------3--5-5--3-5-5-------8----|
E-------------------6-6--5-6-6-5-6----------------6-6-6-6-5-|

Outro (Similar to chorus but rhythm is a bit different):

G----X---X---X-X---------------------|
D-----------------------X---X---X----|
A-5-X-5-X-5-X-5----------------------|
E---------------5-3--3-X-3-X-3-X-3-5-|


Order:
Intro x2
Intro (Guitar solo) x2
Intro (Accordion solo)
Verse
Chorus (x2)
Intro (Guitar solo)
Verse
Chorus (x2)
Guitar solo
C-part
Chorus (x2)
Outro (x6)
            
Submit corrections

comments powered by Disqus
↑ Back to top | Mashina Bass for Badereh El Ha Yam. Lyrics for acoustic guitar and electric guitar. Tablatures and chords are parodies/interpretations of the original songs. You may use it for private study, scholarship, research or language learning purposes only