>
 >
Twister

Twister Bass Tabs

Mary\\S Lamb - Twister chords, tabs, tablatures, lyrics

Guitar lessons | Add/correct | Request | Top 50 tabs Artists:  A B C D E F G H I J K L M N O P Q R S T U V W X Y Z 0-9

Twister Bass Tabs – Mary\\S Lamb

CD, Sheet music, Poster

Do you like Twister? Share with your friends now
Bass Tabs
G-4-3-2-1---------
D---------1-2-3-4-
A---------1-2-3-4-
E-1-2-3-4---------

G-4-3-2-1---------
D---------1-2-3-4-
A---------1-2-3-4-
E-1-2-3-4---------

G-4-3-2-1---------
D---------1-2-3-4-
A---------1-2-3-4-
E-1-2-3-4---------

G-4-3-2-1---------
D---------1-2-3-4-
A---------1-2-3-4-
E-1-2-3-4---------

G-4-3-2-1---------
D---------1-2-3-4-
A---------1-2-3-4-
E-1-2-3-4---------

G-4-3-2-1---------
D---------1-2-3-4-
A---------1-2-3-4-
E-1-2-3-4---------

G-4-3-2-1---------
D---------1-2-3-4-
A---------1-2-3-4-
E-1-2-3-4---------

G-4-3-2-1---------
D---------1-2-3-4-
A---------1-2-3-4-
E-1-2-3-4---------

G-4-3-2-1---------
D---------1-2-3-4-
A---------1-2-3-4-
E-1-2-3-4---------
You have to use the opp. fingers





Comments


Popular Mary\\S Lamb tabs & chords
Best Rif Bass Tabs
China Wok Bass Tabs
Hand Warm Bass Tabs
Jaws Lamb Bass Tabs
Kill Your Ears Bass Tabs
Life Wont Be The Same Bass Tabs
Torpedo Bass Tabs
Warm Up Bass Tabs
Mary Has A Big Lamd Tabs
Torpeto Tabs


Song lyrics



↑ Back to top | Tablatures and chords are parodies/interpretations of the original songs. You may use it for private study, scholarship, research or language learning purposes only
© 2014 AZChords.com Contact us | Privacy policy | DMCA | Add/correct tabs | Request tabs | Top 50 tabs