» » »

Twister Bass tabs (ver.1)

Artists:  A B C D E F G H I J K L M N O P Q R S T U V W X Y Z # 

Twister Bass tabs (ver.1)

Mary\\S Lamb
Rating:
0/5 (0 votes)

Hard to play? Try these video lessons and learn fast.
                G-4-3-2-1---------
D---------1-2-3-4-
A---------1-2-3-4-
E-1-2-3-4---------

G-4-3-2-1---------
D---------1-2-3-4-
A---------1-2-3-4-
E-1-2-3-4---------

G-4-3-2-1---------
D---------1-2-3-4-
A---------1-2-3-4-
E-1-2-3-4---------

G-4-3-2-1---------
D---------1-2-3-4-
A---------1-2-3-4-
E-1-2-3-4---------

G-4-3-2-1---------
D---------1-2-3-4-
A---------1-2-3-4-
E-1-2-3-4---------

G-4-3-2-1---------
D---------1-2-3-4-
A---------1-2-3-4-
E-1-2-3-4---------

G-4-3-2-1---------
D---------1-2-3-4-
A---------1-2-3-4-
E-1-2-3-4---------

G-4-3-2-1---------
D---------1-2-3-4-
A---------1-2-3-4-
E-1-2-3-4---------

G-4-3-2-1---------
D---------1-2-3-4-
A---------1-2-3-4-
E-1-2-3-4---------
You have to use the opp. fingers
            
Hard to play? Try these video lessons and learn fast. | Correct




comments powered by Disqus
↑ Back to top | Tablatures and chords are parodies/interpretations of the original songs. You may use it for private study, scholarship, research or language learning purposes only