» » »

Scale Bass

Artists:  A B C D E F G H I J K L M N O P Q R S T U V W X Y Z # 

Scale Bass

(ver. 1)
Mary\\S Lamb Tabs
 Rating:
4/5 (4 votes)
    Scale lessons Tabs too difficult? Try these video lessons and learn fast
                G-------------------0-2-4-5-4-2-0------------------
D-------------0-2-3--------------3-2-0-------------
A-------0-2-3--------------------------3-2-0-------
E-0-1-3--------------------------------------3-1-0-

G-------------------0-2-4-5-4-2-0------------------
D-------------0-2-3--------------3-2-0-------------
A-------0-2-3--------------------------3-2-0-------
E-0-1-3--------------------------------------3-1-0-

G-------------------0-2-4-5-4-2-0------------------
D-------------0-2-3--------------3-2-0-------------
A-------0-2-3--------------------------3-2-0-------
E-0-1-3--------------------------------------3-1-0-

G-------------------0-2-4-5-4-2-0------------------
D-------------0-2-3--------------3-2-0-------------
A-------0-2-3--------------------------3-2-0-------
E-0-1-3--------------------------------------3-1-0-

G-------------------0-2-4-5-4-2-0------------------
D-------------0-2-3--------------3-2-0-------------
A-------0-2-3--------------------------3-2-0-------
E-0-1-3--------------------------------------3-1-0-

G-------------------0-2-4-5-4-2-0------------------
D-------------0-2-3--------------3-2-0-------------
A-------0-2-3--------------------------3-2-0-------
E-0-1-3--------------------------------------3-1-0-

G-------------------0-2-4-5-4-2-0------------------
D-------------0-2-3--------------3-2-0-------------
A-------0-2-3--------------------------3-2-0-------
E-0-1-3--------------------------------------3-1-0-
e to high b scale
            
Submit corrections

↑ Back to top | Mary\\S Lamb Bass for Scale. Lyrics for acoustic guitar and electric guitar. Tablatures and chords are parodies/interpretations of the original songs. You may use it for private study, scholarship, research or language learning purposes only