» » »

Mary\\S Lamb, Old Blues Bass tabs (ver.1)

Artists:  A B C D E F G H I J K L M N O P Q R S T U V W X Y Z # 

Old Blues Bass tabs (ver.1)

Mary\\S Lamb Tabs
Rating:
0/5 (0 votes)
Old Blues lessons Tabs too difficult? Try these video lessons and learn fast
                G------------------------------------------
D------------------------------------------
A----55---55---55---55---55---55---55---55-
E-33---33---33---33---33---33---33---33----

G------------------------------------------
D------------------------------------------
A----55---55---55---55---55---55---55---55-
E-33---33---33---33---33---33---33---33----

G------------------------------------------
D------------------------------------------
A----55---55---55---55---55---55---55---55-
E-33---33---33---33---33---33---33---33----

G------------------------------------------
D------------------------------------------
A----55---55---55---55---55---55---55---55-
E-33---33---33---33---33---33---33---33----

G------------------------------------------
D------------------------------------------
A----55---55---55---55---55---55---55---55-
E-33---33---33---33---33---33---33---33----

G------------------------------------------
D------------------------------------------
A----55---55---55---55---55---55---55---55-
E-33---33---33---33---33---33---33---33----

G------------------------------------------
D------------------------------------------
A----55---55---55---55---55---55---55---55-
E-33---33---33---33---33---33---33---33----

G------------------------------------------
D------------------------------------------
A----55---55---55---55---55---55---55---55-
E-33---33---33---33---33---33---33---33----

G------------------------------------------
D------------------------------------------
A----55---55---55---55---55---55---55---55-
E-33---33---33---33---33---33---33---33----

G------------------------------------------
D------------------------------------------
A----55---55---55---55---55---55---55---55-
E-33---33---33---33---33---33---33---33----

G------------------------------------------
D------------------------------------------
A----55---55---55---55---55---55---55---55-
E-33---33---33---33---33---33---33---33----

G------------------------------------------
D------------------------------------------
A----55---55---55---55---55---55---55---55-
E-33---33---33---33---33---33---33---33----

G------------------------------------------
D------------------------------------------
A----55---55---55---55---55---55---55---55-
E-33---33---33---33---33---33---33---33----

G------------------------------------------
D------------------------------------------
A----55---55---55---55---55---55---55---55-
E-33---33---33---33---33---33---33---33----

G------------------------------------------
D------------------------------------------
A----55---55---55---55---55---55---55---55-
E-33---33---33---33---33---33---33---33----

G------------------------------------------
D------------------------------------------
A----55---55---55---55---55---55---55---55-
E-33---33---33---33---33---33---33---33----

G------------------------------------------
D------------------------------------------
A----55---55---55---55---55---55---55---55-
E-33---33---33---33---33---33---33---33----

G------------------------------------------
D------------------------------------------
A----55---55---55---55---55---55---55---55-
E-33---33---33---33---33---33---33---33----

G------------------------------------------
D------------------------------------------
A----55---55---55---55---55---55---55---55-
E-33---33---33---33---33---33---33---33----

G------------------------------------------
D------------------------------------------
A----55---55---55---55---55---55---55---55-
E-33---33---33---33---33---33---33---33----

G------------------------------------------
D------------------------------------------
A----55---55---55---55---55---55---55---55-
E-33---33---33---33---33---33---33---33----

G------------------------------------------
D------------------------------------------
A----55---55---55---55---55---55---55---55-
E-33---33---33---33---33---33---33---33----

G------------------------------------------
D------------------------------------------
A----55---55---55---55---55---55---55---55-
E-33---33---33---33---33---33---33---33----

G------------------------------------------
D------------------------------------------
A----55---55---55---55---55---55---55---55-
E-33---33---33---33---33---33---33---33----
Its the oldest Blues
            
Submit corrections

comments powered by Disqus
↑ Back to top | Mary\\S Lamb Bass for Old Blues. Lyrics for acoustic guitar and electric guitar. Tablatures and chords are parodies/interpretations of the original songs. You may use it for private study, scholarship, research or language learning purposes only