» » »

Mary\\S Lamb, Line Up Bass tabs (ver.1)

Artists:  A B C D E F G H I J K L M N O P Q R S T U V W X Y Z # 

Line Up Bass tabs (ver.1)

Mary\\S Lamb Tabs
 Rating:
4/5 (4 votes)
Line Up lessons Tabs too difficult? Try these video lessons and learn fast
1
                G----------1-3-3-1-----------
D-------1-3-------3-1--------
A----1-3-------------3-1-----
E-1-3-------------------3-1--

G----------1-3-3-1-----------
D-------1-3-------3-1--------
A----1-3-------------3-1-----
E-1-3-------------------3-1--

G----------1-3-3-1-----------
D-------1-3-------3-1--------
A----1-3-------------3-1-----
E-1-3-------------------3-1--

G----------1-3-3-1-----------
D-------1-3-------3-1--------
A----1-3-------------3-1-----
E-1-3-------------------3-1--

G----------1-3-3-1-----------
D-------1-3-------3-1--------
A----1-3-------------3-1-----
E-1-3-------------------3-1--

G----------1-3-3-1-----------
D-------1-3-------3-1--------
A----1-3-------------3-1-----
E-1-3-------------------3-1--

G----------1-3-3-1-----------
D-------1-3-------3-1--------
A----1-3-------------3-1-----
E-1-3-------------------3-1--

G----------1-3-3-1-----------
D-------1-3-------3-1--------
A----1-3-------------3-1-----
E-1-3-------------------3-1--

G-------*-*1-3-3-1*-*--------
D----*-*1-3-------3-1*-*-----
A-*-*1-3-------------3-1*-*--
E-1-3-------------------3-1--
            
Submit corrections

comments powered by Disqus
↑ Back to top | Mary\\S Lamb Bass for Line Up. Lyrics for acoustic guitar and electric guitar. 1 Tablatures and chords are parodies/interpretations of the original songs. You may use it for private study, scholarship, research or language learning purposes only