» » »

Life Wont Be The Same Bass tabs (ver.1)

Artists:  A B C D E F G H I J K L M N O P Q R S T U V W X Y Z # 

Life Wont Be The Same Bass tabs (ver.1)

Mary\\S Lamb
Rating:
0/5 (0 votes)

Hard to play? Try these video lessons and learn fast.
                G-------------
D-------5555-5
A-5555-5------
E-------------

G-------------
D-------5555-5
A-5555-5------
E-------------

G-------------
D-------5555-5
A-5555-5------
E-------------

G-------------
D-------5555-5
A-5555-5------
E-------------

G-------------
D-------5555-5
A-5555-5------
E-------------

G-------------
D-------------
A-5555-53333-3
E-------------

G-------------
D-------------
A-5555-53333-3
E-------------

G-------------
D-------------
A-5555-53333-3
E-------------

G-------------
D-------------
A-5555-53333-3
E-------------

G-------------
D-------------
A-5555-53333-3
E-------------

G-------------
D-------------
A-------2222-2
E-3333-3------

G-------------
D-------------
A-------2222-2
E-3333-3------

G-------------
D-------------
A-------2222-2
E-3333-3------

G-------------
D-------------
A-------2222-2
E-3333-3------

G-------------
D-------------
A-------2222-2
E-3333-3------

G-------------
D-------------
A-5555-5------
E-------5555-5

G-------------
D-------------
A-5555-5------
E-------5555-5

G-------------
D-------------
A-5555-5------
E-------5555-5

G-------------
D-------------
A-5555-5------
E-------5555-5

G-------------
D-------------
A-5555-5------
E-------5555-5
            
Hard to play? Try these video lessons and learn fast. | Correct




comments powered by Disqus
↑ Back to top | Tablatures and chords are parodies/interpretations of the original songs. You may use it for private study, scholarship, research or language learning purposes only