» » »

Kid Tetris Bass tabs (ver.1)

Artists:  A B C D E F G H I J K L M N O P Q R S T U V W X Y Z # 

Kid Tetris Bass tabs (ver.1)

Mary\\S Lamb
Rating:
0/5 (0 votes)

Hard to play? Try these video lessons and learn fast.
                G------------------
D---5-----3--------
A-----56-----------
E------------------

G------------------
D---5-----3--------
A-----56-----------
E------------------

G------------------
D---5-----3--------
A-----56-----------
E------------------

G------------------
D---5-----3--------
A-----56-----------
E------------------

G------------------
D---5-----3--------
A-----56-----------
E------------------

G------------------
D---5-----3--------
A-----56-----------
E------------------

G------------------
D---5-----3--------
A-----56-----------
E------------------

G------------------
D---5-----3--------
A-----56-----------
E------------------

G------------------
D---5-----3--------
A-----56-----------
E------------------

G------------------
D---5-----3--------
A-----56-----------
E------------------

G------------------
D---5-----3--------
A-----56-----------
E------------------
its tet ris
            
Hard to play? Try these video lessons and learn fast. | Correct




comments powered by Disqus
↑ Back to top | Tablatures and chords are parodies/interpretations of the original songs. You may use it for private study, scholarship, research or language learning purposes only