» » »

Jaws Lamb Bass tabs (ver.1)

Artists:  A B C D E F G H I J K L M N O P Q R S T U V W X Y Z # 

Jaws Lamb Bass tabs (ver.1)

Mary\\S Lamb
Rating:
0/5 (0 votes)

Hard to play? Try these video lessons and learn fast.
                G----------------------------------------------------------------
D-----------------------------------------------------------------
A-----------------------------------------------------------------
E-0-----1--0----1--0---1--0--1--0-1--0101010101010101010101010101

G----------------------------------------------------------------
D-----------------------------------------------------------------
A-----------------------------------------------------------------
E-0-----1--0----1--0---1--0--1--0-1--0101010101010101010101010101

G----------------------------------------------------------------
D-----------------------------------------------------------------
A-----------------------------------------------------------------
E-0-----1--0----1--0---1--0--1--0-1--0101010101010101010101010101

G----------------------------------------------------------------
D-----------------------------------------------------------------
A-----------------------------------------------------------------
E-0-----1--0----1--0---1--0--1--0-1--0101010101010101010101010101

G----------------------------------------------------------------
D-----------------------------------------------------------------
A-----------------------------------------------------------------
E-0-----1--0----1--0---1--0--1--0-1--0101010101010101010101010101

G----------------------------------------------------------------
D-----------------------------------------------------------------
A-----------------------------------------------------------------
E-0-----1--0----1--0---1--0--1--0-1--0101010101010101010101010101

G----------------------------------------------------------------
D-----------------------------------------------------------------
A-----------------------------------------------------------------
E-0-----1--0----1--0---1--0--1--0-1--0101010101010101010101010101
Scary is int it
            
Hard to play? Try these video lessons and learn fast. | Correct




comments powered by Disqus
↑ Back to top | Tablatures and chords are parodies/interpretations of the original songs. You may use it for private study, scholarship, research or language learning purposes only