» » »

Shut Up And Kiss Me Bass tabs (ver.1)

Artists:  A B C D E F G H I J K L M N O P Q R S T U V W X Y Z # 

Shut Up And Kiss Me Bass tabs (ver.1)

Mary Chapin Carpenter
Rating:
0/5 (0 votes)

Hard to play? Try these video lessons and learn fast.
                Shut Up and Kiss Me

By Mary Chapin Carpenter

In the Style of HepCatz

Bass Tablature


* In the key of A

**Bass comes in at 0:08.

***Lyrics in CAPS are a capella.

G-------------------------|
D-------------------------|
A-----5-5-----------------|
E-0-0-----5-5-5-5-5-5-5-5-|


G-------------------------|
D-------------------------|
A-----5-5-----------------|
E-0-0-----5-5-5-5-5-5-5-5-|



G-------------------------|
D-------------------------|
A-----5-5-----------------|
E-0-0-----5-5-5-5-5-5-5-5-|



G-------------------------|
D-------------------------|
A-----5-5-----------------|
E-0-0-----5-5-5-5-5-5-5-5-|

Don't mean to get a little forward with you

G-------------------------|
D-------------------------|
A-----5-5-----------------|
E-0-0-----5-5-5-5-5-5-5-5-|

Don't mean to get ahead of where we are

G-------------------------|
D-------------------------|
A-----5-5-----------------|
E-0-0-----5-5-5-5-5-5-5-5-|

Don't mean to act a little nervous around you

G-------------------------|
D-------------------------|
A-----5-5-----------------|
E-0-0-----5-5-5-5-5-5-5-5-|

I'm just a little nervous about my heart.

G-------------------------|
D-------------------------|
A-----5-5-----------------|
E-0-0-----5-5-5-5-5-5-5-5-|

'Cause, it's been a while since I felt this feeling

G-------------------------|
D-------------------------|
A-5-5---------------------|
E-----0-0-5-5-5-5-5-5-5-5-|

That everything that you do gives me

G-------------------------|
D-------------------------|
A-5-5---------------------|
E-----0-0-5-5-5-5-5-5-5-5-|

It's been too long since somebody whispered,

G-------------------------|
D-------------------------|
A-5-5---------------------|
E-----0-0-5-5-5-5-5-5-5-5-|

"Woooooooo, shut up and kiss me."

G-------------------------|
D-------------------------|
A-5-5---------------------|
E-----0-0-5-5-5-5-5-5-5-5-|


G-------------------------|
D-------------------------|
A-----5-5-----------------|
E-0-0-----5-5-5-5-5-5-5-5-|



G-------------------------|
D-------------------------|
A-----5-5-----------------|
E-0-0-----5-5-5-5-5-5-5-5-|

Didn't expect to be in this position

G-------------------------|
D-------------------------|
A-----5-5-----------------|
E-0-0-----5-5-5-5-5-5-5-5-|

Didn't expect to have to rise above

G-------------------------|
D-------------------------|
A-----5-5-----------------|
E-0-0-----5-5-5-5-5-5-5-5-|

My reputation for cynicism

G-------------------------|
D-------------------------|
A-----5-5-----------------|
E-0-0-----5-5-5-5-5-5-5-5-|

I've been a jaded lady when it comes to love.

G-------------------------|
D-------------------------|
A-----5-5-----------------|
E-0-0-----5-5-5-5-5-5-5-5-|

But, oh, baby, just to feel this feeling

G-------------------------|
D-------------------------|
A-5-5---------------------|
E-----0-0-5-5-5-5-5-5-5-5-|

That everything that you do gives me

G-------------------------|
D-------------------------|
A-5-5---------------------|
E-----0-0-5-5-5-5-5-5-5-5-|

It's been too long since somebody whispered,

G-------------------------|
D-------------------------|
A-5-5---------------------|
E-----0-0-5-5-5-5-5-5-5-5-|

"Woooooooo, shut up and kiss me."

G-------------------------|
D-------------------------|
A-5-5---------------------|
E-----0-0-5-5-5-5-5-5-5-5-|

There's something 'bout the silent type

G-------------------------|
D-------------------------|
A-------------------------|
E-7-7-7-7-7-7-7-7-7-7-7-7-|

Attracting me to you

G-------------------------|
D-------------------------|
A-5-5---------------------|
E-----0-0-5-5-5-5-5-5-5-5-|

All the business baby, none of the hype

G-------------------------|
D-------------------------|
A-------------------------|
E-7-7-7-7-7-7-7-7-7-7-7-7-|

That no talker can live up to, oooh, ooh

G-------------------------|
D-------------------------|
A-5-5-5-5-5-5-5-5-5-5-5-5-|
E-------------------------|



G-------------------------|
D-------------------------|
A-----5-5-----------------|
E-0-0-----5-5-5-5-5-5-5-5-|



G-------------------------|
D-------------------------|
A-----5-5-----------------|
E-0-0-----5-5-5-5-5-5-5-5-|



G-------------------------|
D-------------------------|
A-----5-5-----------------|
E-0-0-----5-5-5-5-5-5-5-5-|

G-------------------------|
D-------------------------|
A-----5-5-----------------|
E-0-0-----5-5-5-5-5-5-5-5-|



G-------------------------|
D-------------------------|
A-----5-5-----------------|
E-0-0-----5-5-5-5-5-5-5-5-|


G-------------------------|
D-------------------------|
A-----5-5-----------------|
E-0-0-----5-5-5-5-5-5-5-5-|


G-------------------------|
D-------------------------|
A-----5-5-----------------|
E-0-0-----5-5-5-5-5-5-5-5-|


G-------------------------|
D-------------------------|
A-----5-5-----------------|
E-0-0-----5-5-5-5-5-5-5-5-|

COME CLOSER BABY, I CAN'T HEAR YOU.

JUST ANOTHER WHISPER, IF YOU PLEASE?

DON'T WORRY 'BOUT THE DETAILS, DARLING.

YOU'VE GOT THE KIND OF MIND I LOVE TO READ.

TALK IS CHEAP AND BABY, TIME'S EXPENSIVE.

SO WHY WASTE ANOTHER MINUTE MORE?

LIFE'S TOO SHORT TO BE SO APPREHENSIVE.

LOVE'S AS MUCH THE SYMPTOM, DARLING, AS THE CURE.

Oh, baby, when I feel this feeling

G-------------------------|
D-------------------------|
A-5-5---------------------|
E-----0-0-5-5-5-5-5-5-5-5-|

It's like the genuine voodoo hits me.

G-------------------------|
D-------------------------|
A-5-5---------------------|
E-----0-0-5-5-5-5-5-5-5-5-|

It's been too long since somebody whispered,

G-------------------------|
D-------------------------|
A-5-5---------------------|
E-----0-0-5-5-5-5-5-5-5-5-|

"Woooooooo, hoo."

G-------------------------|
D-------------------------|
A-5-5---------------------|
E-----0-0-5-5-5-5-5-5-5-5-|

Oh baby, I can feel this feeling

G-------------------------|
D-------------------------|
A-5-5---------------------|
E-----0-0-5-5-5-5-5-5-5-5-|

That everything that you do gives me

G-------------------------|
D-------------------------|
A-5-5---------------------|
E-----0-0-5-5-5-5-5-5-5-5-|

It's been too long since somebody whispered,

G-------------------------|
D-------------------------|
A-5-5---------------------|
E-----0-0-5-5-5-5-5-5-5-5-|

"Woooooooo, shut up and kiss me."

G-------------------------|
D-------------------------|
A-5-5---------------------|
E-----0-0-5-5-5-5-5-5-5-5-|

Woooooooo, hoo

G-------------------------|
D-------------------------|
A-5-5---------------------|
E-----0-0-5-5-5-5-5-5-5-5-|

"Woooooooo, shut up and kiss me."

G-------------------------|
D-------------------------|
A-5-5---------------------|
E-----0-0-5-5-5-5-5-5-5-5-|



G-------------------------|
D-------------------------|
A-5-5---------------------|
E-----0-0-5-5-5-5---------|
            
Hard to play? Try these video lessons and learn fast. | Correct




comments powered by Disqus
↑ Back to top | Tablatures and chords are parodies/interpretations of the original songs. You may use it for private study, scholarship, research or language learning purposes only