» » »

Marvin Gaye, I Heard It Through The Grapevine Bass tabs (ver.2)

Artists:  A B C D E F G H I J K L M N O P Q R S T U V W X Y Z # 

I Heard It Through The Grapevine Bass tabs (ver.2)

Marvin Gaye Tabs
 Rating:
4.2/5 (5 votes)
I Heard It Through The Grapevine lessons Tabs too difficult? Try these video lessons and learn fast
                Song : Heard it Through the Grapevine
Bassist: James Jamerson

This is a classic Motown song and a classic Jamerson bassline. Enjoy.

Verse/Intro
G|--------------------------------------------------------------|
D|--------------------------------------------------------------|
A|--------------------------------------------6-----4--5-----6--|
E|-----------------------------------------------6--------------|

G|------------------------|--------------------------|------------------------|
D|-------------4----------|--------------4-----------|------------------------|
A|--L-------6--------6----|--L-----6--6-----6--------|------------------------|
E|------------------------|-----------------------6--|--L-------6--6--5--4----|

G|--------------------------|------------------------|--------------------------|
D|--------------------------|-------------4----------|--------------4--6-----8--|
A|-----------5--4--5-----6--|--L-------6--------6----|--L-----6--6--------------|
E|-----5--6-----------------|------------------------|--------------------------|

G|------------------------|---------------------------|-----------------------|
D|--L----------8-----6----|--L------6-----------------|--------------------6--|
A|----------8-------------|------6--------------------|---------------6-------|
E|------------------------|---------------6--7-----8--|--L---------8----------|

G|--------------------------|-----------------------|--------------------------||
D|--L-----------------------|-----------------------|--------------------------||
A|--------------4--5-----6--|--L-------6--6---------|--------------4--5-----6--||
E|--------6--6--------------|------------------4----|-----5--6--6--------------||

Chorus
G|--------------------------------------------------|-----------------------|
D|--------------------------------------------------|----------5--6---------|
A|-----------------------------------------------6--|--L---------------6----|
E|--------------------------------------------------|-----------------------|

G|--------------------------|-------------------------|-------------------------|
D|--------------------------|----------------------5--|--6----------------------|
A|--L-----------4--6--------|----------3--4--5--6-----|----------6--4--5-----6--|
E|--------5--6-----------4--|--L----------------------|-------6-----------------|

G|-----------------------|--------------------------|------------------------|
D|----------5--6---------|--------------------------|---------------------6--|
A|--L---------------6----|--L-----------4--6--------|------------6--6--------|
E|-----------------------|--------5--6-----------4--|--L---------------------|

G|-------------------------|-----------------------|--------------------------|
D|-------------4--6--------|-------------4---------|--------------4--3--------|
A|-------6--6-----------6--|--L-------6-------6----|--L-----6--6-----------6--|
E|-------------------------|-----------------------|--------------------------|

G|-----------------------|--------------------------||
D|-------------4---------|--------------4--3--------||
A|--L-------6-------6----|--L-----6--6-----------6--||
E|-----------------------|--------------------------||
            
Submit corrections

comments powered by Disqus
↑ Back to top | Marvin Gaye Bass for I Heard It Through The Grapevine. Lyrics for acoustic guitar and electric guitar. Tablatures and chords are parodies/interpretations of the original songs. You may use it for private study, scholarship, research or language learning purposes only