» » »

Marvelous 3, Write It On Your Hand Tabs (ver.1)

Artists:  A B C D E F G H I J K L M N O P Q R S T U V W X Y Z # 

Write It On Your Hand Tabs (ver.1)

Marvelous 3 Tabs
 Rating:
4/5 (4 votes)
Write It On Your Hand lessons Tabs too difficult? Try these video lessons and learn fast
1
                
   Title: Write it on your hand!

   ----------------------------------|-------------------------------------------
   ----------------------------------|-------------------------------------------
   ----5//7///10////9///7////9//////5|10////9/////7////9////5--------------------
   ----------------------------------|-------------------------------------------
   ----3//5///8/////7///5////7//////3|8/////7/////5////7////3--------------------
   ----------------------------------|-------------------------------------------
   INTRO 

   ------------------------------------------------------------------------------
   ------------------------------------------------------------------------------
   -----555555----3333333---------------555555555--------------------------------
   -----555555----3333333-333333333-----555555555--------------------------------
   -----333333----1111111-333333333-----333333333--------------------------------
   -----------------------111111111----------------------------------------------
   Chords played under intro as well as verse 

   ------------------------------------------------------------------------------
   ------------------------------------------------------------------------------
   ----5555----10///9//7////9///5---333--10///9///7///9//5-----------------------
   ----5555-------------------------333------------------------------------------
   ----3333----8///7///5////7///3---111--8////7///5//7///3-----------------------
   ------------------------------------------------------------------------------


   ------------------------------------------------------------------------------
   ------------------------------------------------------------------------------
   ---------------------------555555---10//9//7///9//5---------------------------
   -333---10///9//7//9//5-----555555---------------------------------------------
   -333-----------------------333333---8//7///5///7//3---------------------------
   -111---8///7//5//7///3--------------------------------------------------------


   ------------------------------------------------------------------------------
   ------------------------------------------------------------------------------
   ----5555555555--33333333333---------------------------------------------------
   ----5555555555--33333333333--777777777-66666666666----------------------------
   ----3333333333--11111111111--777777777-66666666666----------------------------
   -----------------------------555555555-44444444444----------------------------
   verse and pre chorus 

   ------------------------------------------------------------------------------
   ------------------------------------------------------------------------------
   ----5-4-3----------------5----------------------------------------------------
   ----5-4-3--7-6-5-3-///---5----------------------------------------------------
   ----3/2/1/-7-6-5-3-///---3----------------------------------------------------
   -----------5-4-3-1------------------------------------------------------------
   " al la la la...... repeat 2x 

   Then play the opening chords
   and also play the opening chords behind every chorus
   Go to my site for more marvelous 3 tabs, hopefully
   all of them will be up soon
            
Submit corrections

comments powered by Disqus
↑ Back to top | Marvelous 3 Tabs for Write It On Your Hand. Lyrics for acoustic guitar and electric guitar. 1 Tablatures and chords are parodies/interpretations of the original songs. You may use it for private study, scholarship, research or language learning purposes only