» » »

Sugar Buzz Tabs (ver.1)

Artists:  A B C D E F G H I J K L M N O P Q R S T U V W X Y Z # 

Sugar Buzz Tabs (ver.1)

Marvelous 3
Rating:
0/5 (0 votes)

Hard to play? Try these video lessons and learn fast.
                
Bend  then release = #^#^#
h = hammer
p = pull off

E------0-----------------------------------------------|
B------0-----------------------------------------------|
G------1----------------------------------------------|      Repeat 
D------2----------------------------------------------|
A------2---2--4--4^5^4--2--4--2h4p2---------------|
E---0-------------------------------------4--2--0-----|


E----0---------------------------------------------|
B----0---------------------------------------------|
G----1--------------------------------------------|
D----2------------4------------------------------|
A----2--2--4--5----5--4h5p4-------------------|
E--0----------------------------4--2--0----------|


Thats all i know for right now, but atleast this much is fun to play!
Jeff
            
Hard to play? Try these video lessons and learn fast. | Correct




comments powered by Disqus
↑ Back to top | Tablatures and chords are parodies/interpretations of the original songs. You may use it for private study, scholarship, research or language learning purposes only