» » »

Marvelous 3, Little Head Tabs (ver.1)

Artists:  A B C D E F G H I J K L M N O P Q R S T U V W X Y Z # 

Little Head Tabs (ver.1)

Marvelous 3 Tabs
Rating:
0/5 (0 votes)
Little Head lessons Tabs too difficult? Try these video lessons and learn fast
                standard tuning

-|------|--------------------------------------------|------------------------
-|------|--------------------------------------------|------------------------
-|------|----------------7--7-7-------------7--7-7---|------------------------
-|--5---|-----x5-x5-5-5--7--x-x--x7-x7-7-7--7--x-x---|------------------------
-|--5---|-----x5-x5-5-5--5--4/5--x7-x7-7-7--5--4/5---|------------------------
-|--3---|-----x3-x3-3-3----------x5-x5-5-5-----------|------------------------
  let ring            G1 intro and prechorus riff  (repeat couple times)      

-|--------------------------------------------------|-------------------------
-|--------------------------------------------------|-------------------------
-|---------------x-7-7-7-7---------------x-7-7-7-7--|-------------------------
-|--x-5-5-5-5----x-7-7-7-7---x-7-7-7-7---x-7-7-7-7--|-------------------------
-|--x-5-5-5-5----x-5-5-5-5---x-7-7-7-7---x-5-5-5-5--|-------------------------
-|--x-3-3-3-3----------------x-5-5-5-5--------------|-----------------
      Verse  
-|----------------------------------------------------------------------------
-|----------------------------------------------------------------------------
-|----------------------------------------------------------------------------
-|----------------------------------------------------------------------------
-|----------------------------------------------------------------------------
-|----------------------------------------------------------------------------
      Prechorus  (refer to intro riff above)

-|-----------------------------------|----------------------------------------
-|-----------------------------------|----------------------------------------
-|-----------------------------------|--9-9-9-9---12--12--12--14--14--14--14--
-|--2-x-x-2-2-2-2---5-5-5-5--7-7-7-7-|--x-x-x-x---x---x---x---x---x---x---x---
-|--2-x-x-2-2-2-2---5-5-5-5--7-7-7-7-|--7-7-7-7---10--10--10--12--12--12--12--
-|--0-x-x-0-0-0-0---3-3-3-3--5-5-5-5-|----------------------------------------
     riff that leads into chorus       G2 riff into chorus   

-|----------------------------------------|-----------------------------------
-|----------------------------------------|-----------------------------------
-|--7-7-7-7-7-----------------------------|-----------------------------------
-|--7-7-7-7-7---7-7-7-7-7--5-5-5-5-5---7--|-----------------------------------
-|--5-5-5-5-5---7-7-7-7-7--5-5-5-5-5---7--|-----------------------------------
-|--------------5-5-5-5-5--3-3-3-3-3--h5--|---3/2-p0/2------------------------ 
    G1 chorus     2x                         this into verse

-|------------------------------------|-----------------|---------------------
-|---7--7-7---------------------------|--10-8--7--------|---------------------
-|---7--7-7---------------------------|--x--x--x---7----|---------------------
-|---7--7-7---------------------------|--7-/5-/4---x----|---------------------
-|------------------------------------|-----------/5----|---------------------
-|------------------------------------|-----------------|---------------------
    G2 chorus  (keep hitting this note)    then this at end of chorus 
        

-|---------------------------------------------------------|------------------
-|---------------------------------------------------------|------------------
-|---------------------------------------------------------|------------------
-|---------------------------------------------------------|------------------
-|-----5------5-------5------5------5-----5------5-----5---|------------------
-|---3---3--3---3---2---2--2---2--0---0-0---0--2---2-2---2-|------------------
    Interlude part 1        two times
                                         

-|-----------------------------------------------------------|----------------
-|-----------------------------------------------------------|----------------
-|---7-7-7-7---11-11-11-9-11-12--14--16--18--19--21--21--21--|----------------
-|---x-x-x-x---x--x--x--x-x--x---x---x---x---x---x---x---x---|----------------
-|---5-5-5-5---9--9--9--7-9--10--12--14--16--17--19--19--19--|----------------
-|-----------------------------------------------------------|----------------
    This is G2 part on the interlude the second time                          

-|---3-----2-----2---0-----2----2-----|---------------------------------------
-|-----3-----3-----3---3----3-----3---|---------------------------------------
-|-------2-----2---------2----2-------|---------------------------------------
-|------------------------------------|---------------------------------------
-|------------------------------------|---------------------------------------
-|------------------------------------|---------------------------------------
    Interlude part 2  (acoustic effect)   play this 4 times  

-|--------------------------------------|-------------------------------------
-|--------------------------------------|-------------------------------------
-|------------7-x-x-x-x---------7-x-x-x-|-------------------------------------
-|---5-5-5-5--7-x-x-x-x--7-7-7--7-x-x-x-|-------------------------------------
-|---5-5-5-5--5-x-x-x-x--7-7-7--5-x-x-x-|-------------------------------------
-|---3-3-3-3-------------5-5-5----------|-------------------------------------
    Outro   2x     then into intro riff to end song
            

comments powered by Disqus
↑ Back to top | Marvelous 3 Tabs for Little Head. Lyrics for acoustic guitar and electric guitar. Tablatures and chords are parodies/interpretations of the original songs. You may use it for private study, scholarship, research or language learning purposes only