» » »

Marvelous 3, Indie Queen Tabs (ver.1)

Artists:  A B C D E F G H I J K L M N O P Q R S T U V W X Y Z # 

Indie Queen Tabs (ver.1)

Marvelous 3 Tabs
 Rating:
4/5 (4 votes)
Indie Queen lessons Tabs too difficult? Try these video lessons and learn fast
                

Standard Tuning
Very Cool Song.

-|----------------------------------------------------------------------------
-|----------------------------------------------------------------------------
-|----------------------------------------------------------------------------
-|-------------7-7-7-7-7--9-9-9-9-9--7-7-7-7-7--5-5-5-5-5--4-4-4-4-4----------
-|--5-5-5-5-5--5-5-5-5-5--7-7-7-7-7--5-5-5-5-5--3-3-3-3-3--2-2-2-2-2----------
-|--3-3-3-3-3-----------------------------------------------------------------
     This is the Intro and Chorus.   Improvise the lead part over this.       

-|----------------------------------------------------------------------------
-|----------------------------------------------------------------------------
-|----------------------------------------------------------------------------
-|----------------------------------------------------------------------------
-|--7-7-7-7-7---5-5-5-5-5-----------------------------------------------------
-|--5-5-5-5-5---3-3-3-3-3-----------------------------------------------------
         Intro/Chorus continued from above...                                 

-|---3----3------------|--7-----7-----7-----7-----|----9----------------------
-|---3----3------------|----8-8---8-8---8-8---8-8-|---------------------------
-|---x----x------------|--------------------------|---------------------------
-|---x----0------------|--------------------------|---------------------------
-|---0----3------------|--------------------------|---------------------------
-|---3----x------------|--------------------------|---------------------------
      G1 Verse Strum      G2 Verse                    Throw this in with G2   

-|----------------------------------------|-----------------------------------
-|----------------------------------------|-----------------------------------
-|----------------------------------------|-----------------------------------
-|-------------7-7-7-7--9-9-9-9--7-7-7-7--|---7-7-7-7--5-5-5-5-----7-7-7-7----
-|---5-5-5-5---5-5-5-5--7-7-7-7--5-5-5-5--|---5-5-5-5--3-3-3-3-----5-5-5-5----
-|---3-3-3-3------------------------------|---------------------5-------------
     Prechorus     Palm mute this part.       "but its all just another day"  

-|-------------------------------------|--------------------------------------
-|-------------------------------------|--------------------------------------
-|-------------------------------------|--------------------------------------
-|-------------------------------------|--------------------------------------
-|-------------------------------------|--------------------------------------
-|---5h8h5h8h5h8h5h8-------------------|---3-3-3-3-3--2-2-2-2-2-0-0-1-1-1-1---
     Do this just before chorus begins     Interlude                          

-|----------------------------------------------------------------------------
-|----------------------------------------------------------------------------
-|----------------------------------------------------------------------------
-|---5------------------------5h7---5-----------------------------------------
-|---3---5----7----5------3h5-------3---5-----3-3-3xxx------------------------
-|-------3----5----3--------------------3-----1-1-1xxx----1h3h1h3h1h3h1h3-----
                                                                              
            
Submit corrections

comments powered by Disqus
↑ Back to top | Marvelous 3 Tabs for Indie Queen. Lyrics for acoustic guitar and electric guitar. Tablatures and chords are parodies/interpretations of the original songs. You may use it for private study, scholarship, research or language learning purposes only