» » »

I Could Change Tabs (ver.1)

Artists:  A B C D E F G H I J K L M N O P Q R S T U V W X Y Z # 

I Could Change Tabs (ver.1)

Marvelous 3
Rating:
0/5 (0 votes)

Hard to play? Try these video lessons and learn fast.
                Tuning: Standard

Pretty sure this is right.  The harmonics don't sound right tuned down a half step
like some of the other songs on the album.  Comments and corrections are welcome,
but I don't wanna hear it unless you're better at this than me, ok?  Enjoy!

~ Vibrato
/ Slide up
\ Slide down
^ Bend (half step)   16^17^16 = bend and release
() Harmonic - Lightly touch stings, but don't fret them.
[] May or may not actually be played.


Intro riff over chord progression: B5 - F# - E
e--------------------------------------------------------|
B---------------------17-16^17^16------------------------|
G---------------13-14-------------16-14-13^14^13---------| x4
D------13-14-16----------------------------------14-13---|
A--14~---------------------------------------------------|
E--------------------------------------------------------|


Verse (Palm Mute)
e------------------------------|   |--------------------------------|
B------------------------------|   |--------------------------------|
G----------------9-9-(999999)--|x3 |----------------9-9-------------|
D--9-9-(999999)--9-9-(999999)--|   |--9-9-(999999)--9-9--6-6--4-4---|
A--9-9-(999999)--7-7-(777777)--|   |--9-9-(999999)--7-7--6-6--4-4---|
E--7-7-(777777)----------------|   |--7-7-(777777)-------4-4--2-2---|

Verse Cont'd (change of rythm)
e--------------------------------------|   |--------------------------|
B--------------------------------------|   |--------------------------|
G---------------------XX-9-X-9-X-9-X-9-|x3 |-----------XX9X9----------|
D--XX-9-X-9-X-9-X-9---XX-9-X-9-X-9-X-9-|   |-XX9X9X9X9-XX9X9-6-6--4-4-|
A--XX-9-X-9-X-9-X-9---XX-7-X-7-X-7-X-7-|   |-XX9X9X9X9-XX7X7-6-6--4-4-|
E--XX-7-X-7-X-7-X-7--------------------|   |-XX7X9X9X9-------4-4--4-2-|

(Palm mute as necessary)
e------0-------0-------2-------2----|
B------0-------0-------2-------2----|
G------1-------1-------3-------4----|x4
D--2-2---2-2-2---2-4-4---4-4-4-4-3--|
A--2-2---2-2-2---2-4-4---4-4-4-4-1--|
E--0-0---0-0-0---0-2-2---2-2-2-2-1--|


Chorus (Rythm not shown)           "I know..." riff
    B5   F#  C#m   F#                 B5   F#   E
e-----------------------|          |-----------------|
B-------------5---------|          |-----------------|
G---4----3----6----3----|  ...Then |--4----3---[1]---|x4
D---4----4----6----4----|          |--4----4----2----|
A---2----4----4----4----|          |--2----4----2----|
E---2----2---------2----|          |-[2]---2----0----|


Chill Interlude  (M = Mute)
e||---------4-M-4-M------------2-M-2-M------------0-M-0-M-|
B||---------4-M-4-M------------2-M-2-M------------0-M-0-M-|
G||o--4-4-X-4-M-4-M--4-4-3-3-X-3-M-3-M--3-2-1-1-X-1-M-1-M-|
D||o--6-6-X----------6-5-4-4-X----------4-3-2-2-X---------|
A||---6-6-X----------6-5-4-4-X----------4-3-2-2-X---------|
E||---4-4-X----------4-3-2-2-X----------2-1-0-0-X---------|

e------------------------||
B------------------------||
G--1-1-X--4-4-X--3-3-X--o||(Repeat)
D--2-2-X--4-4-X--4-4-X--o||
A--2-2-X--2-2-X--4-4-X---||
E--0-0-X--2-2-X--2-2-X---||


Solo (Over "Chill Interlude")
e-----------------------------------------------------
B------------------------------------------------9-11-
G--8~--9-8-6~--8-6\4-4~-6-4-6-4-6-4-6/8-9-8-9/11------
D--9~------7~--------6~-------------------------------
A-----------------------------------------------------
E-----------------------------------------------------

e-------------------------------------------------|
B--12-12--11-11-----------------------------------|
G----------------11-11----------------------------|Then back to
D-----------------------11-11--9-9--8-8-----------| "I know..." riff
A----------------------------------------9-9------|
E---------------------------------------------9-9-|


Lyrics:

New Years Day, lyin' next to my bed with a
Hand in my pants and a song in my head
About being depressed 'til I figured out
It ain't the 90's anymore
I looked thru a Raygun and thru a SPIN
Then I ripped out the pages of clothes that were in,
Threw on my Pumas and tried to put it all behind me
Mona Lisa smiled as I was walkin' out the door
She said, "Yo, you gotta keep it real, just like the year before."
I second that motion and 20 thousand more

Chorus:
cuz I could change and you could change
But everybody would stay the same (I know)

Still on vacation with nothin' to do so I
Got in my car and I got a tattoo just to
Cover up the one that I got of you when I was drinkin'
I really only now regret the things I haven't done
Stayin' under covers in the dark it ain't no fun
I'd rather take my glasses off and stare right at the sun

(Chorus)
            
Hard to play? Try these video lessons and learn fast. | Correct




comments powered by Disqus
↑ Back to top | Tablatures and chords are parodies/interpretations of the original songs. You may use it for private study, scholarship, research or language learning purposes only