» » »

Marvelous 3, Grant Park Tabs (ver.1)

Artists:  A B C D E F G H I J K L M N O P Q R S T U V W X Y Z # 

Grant Park Tabs (ver.1)

Marvelous 3 Tabs
 Rating:
4.2/5 (5 votes)
Grant Park lessons Tabs too difficult? Try these video lessons and learn fast
                

------------------------------------------------------------------------------
------------------------------------------------------------------------------
--------7-7---5-5---5-5---5p3-------------------------------------------------
--5-5---7-7---5-5---5-3-------5-----------------------------------------------
--5-5---5-5---3-3---3---------------------------------------------------------
--3-3-------------------------------------------------------------------------
 go and take a ride..                                                         

------------------------------------------------------------------------------
------------------------------------------------------------------------------
-----------7-7-7-7---5-5-5-5-5-5-5-5------------------------------------------
-5-5-5-5---7-7-7-7---5-5-5-5-5-5-5-5------------------------------------------
-5-5-5-5---5-5-5-5---3-3-3-3-3-3-3-3------------------------------------------
-3-3-3-3----------------------------------------------------------------------
 anymore(i cant believe it)                                                   

------------------------------------------------------------------------------
------------------------------------------------------------------------------
--------7-7---5-5---5-5--5p3--------------------------------------------------
--5-5---7-7---5-5---5-3------5------------------------------------------------
--5-5---5-5---3-3---3---------------------------------------------------------
--3-3-------------------------------------------------------------------------
 heres a funny story                                                          

------------------------|-----------------------------------------------------
------------------------|-----------------------------------------------------
--7-7-7-7---5-5-5-5-----|-----------------------------------------------------
--7-7-7-7---5-5-5-5-----|---5-5-5-5-------------------------------------------
--5-5-5-5---3-3-3-3-----|---5-5-5-5-------------------------------------------
------------------------|---3-3-3-3-------------------------------------------
  check the exposure..      gonna lose you're mind..                          

------------------------------------------------------------------------------
------------------------------------------------------------------------------
------99999999-7777b97b97b99--------------------------------------------------
------------------------------------------------------------------------------
------------------------------------------------------------------------------
------------------------------------------------------------------------------
 mind...                                                                      
            
Submit corrections

comments powered by Disqus
↑ Back to top | Marvelous 3 Tabs for Grant Park. Lyrics for acoustic guitar and electric guitar. Tablatures and chords are parodies/interpretations of the original songs. You may use it for private study, scholarship, research or language learning purposes only