» » »

Every Monday Tabs (ver.1)

Artists:  A B C D E F G H I J K L M N O P Q R S T U V W X Y Z # 

Every Monday Tabs (ver.1)

Marvelous 3
Rating:
5/5 (1 vote)

Tabs too difficult? Try these video lessons and learn fast.
                Album:Hey Album

Verse 1: clean
Verse 2: Distortion
(For verse 1 & 2 I am not exactly sure of the strokes so I just gave
the
chords)
e --------0------------0---------0--------------2------------
B --------2------------2---------2--------------3------------
G --------2------------1---------0--------------2------------
D --------2------------2---------2--------------0------------
A --------0------------0---------0---------------------
E -------------------------------------------------------


1)  I was checked in by 4, put the sign on the door, looked  out  the 
window  of  the  17th  floor,  
2)  I shed 5 bitter tears,  into 5 bitter beers,         Looked at my
watch
and said where have the

e --------------2---------------2-------------2-4-2222------
B --------------2---------------3-------------3-5-3333-----
G --------------2---------------4-------------4-6-4444------
D --------------2---------------4-------------4-6-4444------
A --------------0---------------2-------------2-4-2222------
E ----------------------------------------------------------

1)                     Yelled to the city that knows me by name, and
all of
the things that I dooooooo   
2)  years gone? I'm wasting away like a castle of clay slowly          

crumbling            intoooooo



Chorus


e ----------------------------------------------------------------------------------------------
B ----------------------------------------------------------------------------------------------
G ------------------7-7-7-7-7-7-2-2-2-----------------7-7-7-7-7-2--2--2---------------------7-7-
D ------------------7-7-7-7-7-7-2-2-2-----------------7-7-7-7-7-2--2--2---------------------7-7-
A -0----2----4----5-5-5-5-5-5-0-0-0-------0--2---4----5-5-5-5-5-0--0--0-------0--2---4----5-5---
E ----------------------------------------------------------------------------------------------
                                     Every Monday      I  get this pain
Every Wednesday    it hits my brain

e -------------------------------------------------------------------
B -------------------------------------------------------------------
G -7-7-7-2--2--2--2-------44444444---7777777-------------------------
D -7-7-7-2--2--2--2-------44444444---7777777---------9---9---9-------
A-5-5-5-0--0--0--0--------22222222---5555555---------7---7---7-------
E -------------------------------------------------------------------
     Every Friday I die   cuz every day                    I still     
    
       Think of you!



Bridge


e ---------------------------------------------------2----------
B ---------------------------------------------------2----------
G --2-----4--2--1-------2--1--0------2--0-------2-----RING------
D ----------------------------------------------4----2----------
A ---------------------------------------------------0----------
E --------------------------------------------------------------


Verse 3 (no guitar)


I was F*%#ed up by 5, talking nothing but jive, told the bartender he'd
never take me alive, all of this because my favorite show was cancelled
last
night on t.v.


Verse 4

e --------------5---------------------5------------------------------5-------------------------------------
B -----------5---------------------5-------------------------------5------------------------------9--9-----
G --------6---------------------6-------------------------------6-----------------------------10-----------
D -----5---------------------6-------------------------------5----------------------------11---------------
A --------------------------------------------------------------------------------------------------------
E --------------------------------------------------------------------------------------------------------
      So i called up Marie, she'd have sex for free, but for ten bucks
an
hour she'd listen to me

e -----------5---------------------------------------------------------7------------------------
B --------5----5---------------------------------------------------7----------------------------
G -----6---------6---------------------------------------------8--------------------------------
D --7---------------7--------------------------------------9------------------------22222222----
A --------------------------------------------------------------------------------- 22222222----
E ----------------------------------------------------------------------------------00000000----
      talk about rockstars and models on dope, and how I can't cope
with
this scene


Chorus


Solo  (with Wah)

e --------------------------------------------------------------------------------------------------
B --10-------12--10--9--7--5----8------10--8--7--5--3-----6-------8--6--5--3--2-----4-----7------5--
G --------------------------------------------------------------------------------------------------
D --------------------------------------------------------------------------------------------------
A --------------------------------------------------------------------------------------------------
E --------------------------------------------------------------------------------------------------

e -------------------------------------------------------------------------------------------------
B --10--------12--10--9--7--5----8-----10--8--7--5--3-----6------8--6--5--3--2-----4-----7------9---
G --------------------------------------------------------------------------------------------------
D --------------------------------------------------------------------------------------------------
A --------------------------------------------------------------------------------------------------
E -------------------------------------------------------------------------------------------------
                                                                       
    
                                                       Woooooo


Chorus


Fill

e --------------------------------------------------------------------------------------------
B --------------------------------------------------------------------------------------------
G --------------------------------------------------------------------------------------------
D --------------------------------------------------------------------------------------------
A --9---------------8--------------7--------------------6---------------------222222222222222--
E --------------------------------------------------------------------------------------------
     Talk like you  Eat like you  Breathe like you  sleep like you     
    
Everrrrry    Dayyyy

e -------------------------------------------------
B -------------------------------------------------
G ---7777777-------------9----9----9---------------
D ---7777777-------------9----9----9---------------
A ---5555555-------------7----7----7---------------
E -------------------------------------------------
                        I still                             Want    you




End

e -----------5--------------5---------------5-----------5-----
B --------5--------------5---------------5----5---------5-----
G -----6--------------6---------------5---------5-------6-----
D --7--------------6---------------5--------------------7-----
A ------------------------------------------------------7-----
E ------------------------------------------------------5-----



That's about it.   I know that it is not perfect but I'm sure you
talented
people can figure out any mistakes.  And if you do please Email me at  
            
Tabs too difficult? Try these video lessons and learn fast.




comments powered by Disqus
↑ Back to top | Tablatures and chords are parodies/interpretations of the original songs. You may use it for private study, scholarship, research or language learning purposes only