» » »

Beautiful Tabs (ver.1)

Artists:  A B C D E F G H I J K L M N O P Q R S T U V W X Y Z # 

Beautiful Tabs (ver.1)

Marvelous 3
Rating:
0/5 (0 votes)

Hard to play? Try these video lessons and learn fast.
                Ahh, Marvelous 3.  One of my favorite groups.  And this happens to be one of my
favorite songs off the new album!  


INTRO: (2x)
Guitar 1:
|---0------0-----------0------0------------0------0----------
|-----3------3---3-------3------3----3-------3------3----3---
|--------2------------------2-------------------2------------
|-0------------0---------------------------------------------
|--------------------4-------------4-------------------------
|----------------------------------------3-------------3-----

----0------0------------|
------3------3-----3----|
---------2--------------|
------------------------|
-0--------------0-------|
------------------------|


Guitar 2: (on 2nd time intro)
fades in with this note:
|--10~--|
|-------|
|-------|
|-------|
|-------|
|-------|


PRE-VERSE/CHORUS:
|------------------------------------------------------|
|------------------------------------------------------|
|-7--7--9-11-7---7--7--9-11-7---7-6-7-6-7-6--6-4-4-6---|
|-7--7--9-11-7---7--7--9-11-7---7-6-7-6-7-6--6-4-4-6---|
|-5--5--7--9-5---5--5--7--9-5---5-4-5-4-5-4--4-2-2-4---|
|------------------------------------------------------|


VERSE: 2x
|----------------------------------------------------------|
|----------------------------------------------------------|
|-77--777777----------66--666666---------------------------|
|-77--777777----------66--666666------55--555555-------7---|
|-55--555555----------44--444444------55--555555-------7---|
|-------------------------------------33--333333-------5---|
      pm....              pm....          pm....
   \\"I don\\\'t know...\\"


PRE-CHORUS:
|-----------------------------------------------------------------|
|-----------------------------------------------------------------|
|------------7--xx---------------7--xx--------------22/44/66/7----|
|-5-xx--7xx--7--xx----5-xx--7xx--7--xx---5--555555--22/44/66/7----|
|-5-xx--7xx--5--xx----5-xx--7xx--5--xx---5--555555--00/22/44/5----|
|-3-xx--5xx-----------3-xx--5xx----------3--333333----------------|
   \\"Don\\\'t wash your mind...\\"

PRE-VERSE/CHORUS (3x)

AFTER CHORUS:
|----------------------|
|----------------------|
|-44-------------------|
|-44--777--555-5-7-7---|
|-22--777--555-5-7-7---|
|-----555--333-3-5-5---|

PRE-VERSE/CHORUS

VERSE (2x)

PRE-CHORUS

PRE-VERSE/CHORUS (3x)

AFTER CHORUS

INTRO (3x)

Then strum this really fast (16th notes), palm muted for the bridge:
|---|
|---|
|-7-|
|-7-|
|-5-|
|---|
And hit the normal power chords (775, 664, 553, 775) on the first beat of each
measure.  Not too hard, you\\\'ll figure it out.



You can figure out where everything goes I\\\'m sure.  It ends with the intro and Butch sings
\\"You\\\'re not mine...\\" so, there ya go.  I\\\'m sure I made mistakes, so e-mail me with 
corrections!

Ryan Sanders
Fry\\\'s Hall of Tabs
            
Hard to play? Try these video lessons and learn fast. | Correct




comments powered by Disqus
↑ Back to top | Tablatures and chords are parodies/interpretations of the original songs. You may use it for private study, scholarship, research or language learning purposes only