» » »

Martha And The Vandellas, Third Finger Left Hand Bass tabs (ver.1)

Artists:  A B C D E F G H I J K L M N O P Q R S T U V W X Y Z # 

Third Finger Left Hand Bass tabs (ver.1)

Martha And The Vandellas Tabs
Rating:
0/5 (0 votes)
Hard to play? Try these video lessons and learn fast.
                Original Artists: Martha Reeves & The Vandelles
Bassist: James Jamerson (with The Funk Brothers)

exception to his rule.  Have fun

Have Fun

Intro:         Chorus 1:
G-------------|--------------------------------------------------|
D-------------|---3-33-------------------0-3-0------3-----0-00---|
A---3-3-1-----|--------0-1-11---1-11---1--------0-4---4----------|
E---------3---|--------------------------------------------------|

G------------------------0-0--5----------------------------|
D----------0-00---2-3-33----------5-5-------3-33-----------|
A---0-00-------------------------------3---------3-3-1-----|
E------------------------------------------------------3---|

Verse:
G-----------------------------------------------0-00------------|
D---3-33---0-00-----------------------2---0-00------------------|
A-------3--------1-11--2--3-33---0-04-----------------1--3-33---|
E---------------------------------------------------------------|

G----------------------------------------------------------------|
D---3-33----0-00------------------------2--0-00------------------|
A--------3---------1-11--2--3-33---0-04----------------3-3-1-----|
E------------------------------------------------3-33--------3---|

Chorus 2                                    .
G---------------------------------------6---7------|
D---3-33-------------------0-3-0------3------7-----|
A--------0-1-11---1-11---1--------0-4---------5----|
E--------------------------------------------------|

G------------------------0-0--5----------------------------|
D----------0-00---2-3-33----------5-5-------3-33-----------|
A---0-00-------------------------------3---------3-3-1-----|
E------------------------------------------------------3---|

Repeat Verse

Repeat Chorus 1

Outro: (repeat to fade)
G------------------------------------0-0--5--------------------------|
D-------3---0-00-------0-00---23-33----------5-5-----3-33------------|
A---0-4--4-------0-00-----------------------------3--------3-3-1-----|
E----------------------------------------------------------------3---|
            

comments powered by Disqus
↑ Back to top | Martha And The Vandellas Bass for Third Finger Left Hand. Lyrics for acoustic guitar and electric guitar. Tablatures and chords are parodies/interpretations of the original songs. You may use it for private study, scholarship, research or language learning purposes only