» » »

Martha And The Vandellas, Nowhere To Run Bass tabs (ver.1)

Artists:  A B C D E F G H I J K L M N O P Q R S T U V W X Y Z # 

Nowhere To Run Bass tabs (ver.1)

Martha And The Vandellas Tabs
 Rating:
4/5 (4 votes)
Nowhere To Run lessons Tabs too difficult? Try these video lessons and learn fast
1
                (Original Bassist: James Jamerson)

Intro:					This bit x7
G-------------------------------	------------------------|
D--5-55-55-55-2-3-4-5---5-------	--0-2-0-3-0-45----------|
A------------------------2-3-5--	-----------------123-5--|
E-------------------------------	---------------3--------|

G-------------------------------------------------|
D--0-2-0-3-0-45--5-55-55----0245---55------02345--|
A------------------------23-----------22-3--------|
E--------------------------------3----------------|

This bit x4
G-----------------------		------------------------|
D--------0-2-0-3-0-45---		----7-5-4---------------|
A--123-5----------------		----------7-34---02345--|
E--------------------3--		--5------------0--------|

						This bit x4
G------2-----------------        -------------------------|
D--2-4------0-0----------        --------0-2-0-3-0-45-----|
A--------4------3-1------        --123-5------------------|
E-------------------2-3--        ---------------------3---|

							This bit x4
G----------------------------------		------------------------|
D--5-55------0-2-5--55--5-----2345-		--------0-2-0-3-0-45----|
A------22-33-------------234-------		--123-5-----------------|
E-----------------3----------------		---------------------3--|

G-----------------------0-1-2---------------2----------------|
D--0-2-0-3-0-45-------2-------2-------0-2-4-----0-0----------|
A---------------0-2-4-----------0-2-3---------4-----3-1------|
E-------------------------------------------------------2-3--|

This bit x4
G-----------------------	--------------------------------------|
D--------0-2-0-3-0-45---	--5-55-0----5----020-5-55-0----02345--|
A--123-5----------------	--------22---33------------2-23-------|
E--------------------3--	--------------------------------------|

This bit x4
G-----------------------     -------------------------7--------------|
D--------0-2-0-3-0-45---     --------2------2------7-9-0-0-----------|
A--123-5----------------     --0-00-4-0--2-4-45-7-9--------3-1-------|
E--------------------3--     ----------------------------------2-3---|

Repeat to fade
G-----------------------|
D--------0-2-0-3-0-45---|
A--123-5----------------|
E--------------------3--|
            
Submit corrections

comments powered by Disqus
↑ Back to top | Martha And The Vandellas Bass for Nowhere To Run. Lyrics for acoustic guitar and electric guitar. 1 Tablatures and chords are parodies/interpretations of the original songs. You may use it for private study, scholarship, research or language learning purposes only