» » »

Martha And The Vandellas, Im Ready For Love Bass tabs (ver.1)

Artists:  A B C D E F G H I J K L M N O P Q R S T U V W X Y Z # 

Im Ready For Love Bass tabs (ver.1)

Martha And The Vandellas Tabs
 Rating:
4/5 (4 votes)
Im Ready For Love lessons Tabs too difficult? Try these video lessons and learn fast
1
                Original Artists: Martha & The Vandellas
Bassist: James Jamerson
Yet another great Motown song. E-mail me with your comments

Intro & verse
G---------------------------------------------------------------|
D---------------0--------------0--------------------------------|
A--555---55---5----555---55--5----555---55--55---555---55--55---|
E------5----5----------5----5---------5----5---------5---5------|

G------------------------------------------------------------------|
D------------------------------------------------------------------|
A--555---55---55---444---44---44---222---22---22-------------------|
E------5----5----------4----4----------2----2------555-0-55-0-55---|

G------------------------------------------------------------------|
D------------------------------------------------------------------|
A--222---22---22-------------------777---77---77-------------------|
E------2----2------555-0-55-0-55-------7----7------555-0-55-0-54---|

G------------------------------------------------------------------|
D------------------------------------------------------------------|
A------------------222---22---22-----------------------------------|
E--222-0-22-0-22-------2----2------000-0-00-0-00---555-0-55-0-54---|

G------------------------------------------------------------------|
D------------------------------------------------------------------|
A------------------222---22---22-----------------------------------|
E--222-0-22-0-22-------2----2------000-0-00-0-00----555-0-55-0-55--|

G------------------------------------------------------------------|
D------------------------------------------------------------------|
A-----------------555---55---55------------------------------------|
E--666-0-66-0-66------5----5------333-0-33-0-33----222-0-33-0-55---|

Repeat Verse:

Last verse
G----------------------------------------|
D-----------------0------------------0---|
A--555-----55---5-----555-----55---5-----|
E-------5-----5------------5-----5-------|

G------------------------------------------------------------------|
D------------------------------------------------------------------|
A--555---55---55---444---44---44---222---22---22-------------------|
E------5----5----------4----4----------2----2------555-0-55-0-55---|

G------------------------------------------------------------------|
D------------------------------------------------------------------|
A--222---22---22-------------------777---77---77-------------------|
E------2----2------555-0-55-0-55-------7----7------555-0-55-0-54---|

G------------------------------------------------------------------|
D------------------------------------------------------------------|
A------------------222---22---22-----------------------------------|
E--222-0-22-0-22-------2----2------000-0-00-0-00---555-0-55-0-54---|

Outro (Repeat to Fade)
G------------------------------------------------------------------|
D------------------------------------------------------------------|
A------------------222---22---22-----------------------------------|
E--222-0-22-0-22-------2----2------000-0-00-0-00---555-0-55-0-54---|
            
Submit corrections

comments powered by Disqus
↑ Back to top | Martha And The Vandellas Bass for Im Ready For Love. Lyrics for acoustic guitar and electric guitar. 1 Tablatures and chords are parodies/interpretations of the original songs. You may use it for private study, scholarship, research or language learning purposes only