» » »

Labbandono Tabs (ver.2)

Artists:  A B C D E F G H I J K L M N O P Q R S T U V W X Y Z # 

Labbandono Tabs (ver.2)

Marta Sui Tubi
Rating:
0/5 (0 votes)

Hard to play? Try these video lessons and learn fast.
                tuning: D A D G B e

verso (i bassi son martellanti, van tenuti sempre)
---------------------------------------|
-8----------8-----------3-----------3--|
--------0----------0----------0--------|
------8----------8----------3----------|
-6--6-----6-6--6--------1-1-----1-1-1--|
---------------------------------------|

rit (scrivo solo gli accordi, arpegg. come prima)
--------------------------|
-6---------13-------------|
-0----------0-------------|
-6---------13-------------|
-4---------11-------------|
--------------------------|

finale (sempre coi bassi martellanti)
-----------------------------------------------|
-8-----------8----------8------------8---------|
--------0----------0-----------0------------0--|
------8----------8-----------8------------8----|
-6--6-----6--------------------------5--5----5-|
-------------0-0-----0--5--5-----5-------------|
            
Hard to play? Try these video lessons and learn fast. | Correct




comments powered by Disqus
↑ Back to top | Tablatures and chords are parodies/interpretations of the original songs. You may use it for private study, scholarship, research or language learning purposes only