» » »

Labbandono Tabs (ver.1)

Artists:  A B C D E F G H I J K L M N O P Q R S T U V W X Y Z # 

Labbandono Tabs (ver.1)

Marta Sui Tubi
Rating:
0/5 (0 votes)

Hard to play? Try these video lessons and learn fast.
                This is my first tab

A beautiful song by
Marta sui tubi - L'abbandono

Drop D tuning DADGBe

-------------------------------------------|
--8----8----8----8----3----3----3----3-----| few times
----0-0--0-0--0-0--0-0--0-0--0-0--0-0--0-0-|
-----8----8----8----8----3----3----3----3--|
--6-6-6-6-6-6-6-6-6-6--1-1-1-1-1-1-1-1-1-1-|
-------------------------------------------|


---------------------------------------|
--4-------11-4-------11-4--------8-----|
-----------------------------------0-0-|
------4----------4----------4-------8--|
--------2----------2----------2--6-6-6-|
---------------------------------------|


final part

--------------------------------------------|
--8----8----8----8----8----8----8----8------|
----0-0--0-0--0-0--0-0--0-0--0-0--0-0--0-0--|
-----8----8----8----8----8----8----8----8---|
--6----5--------------6----5----------------|
------------5----7--------------5----7------|

That's all
            
Hard to play? Try these video lessons and learn fast. | Correct




comments powered by Disqus
↑ Back to top | Tablatures and chords are parodies/interpretations of the original songs. You may use it for private study, scholarship, research or language learning purposes only