» » »

Marshall Tucker Band, Running Like The Wind Tabs (ver.1)

Artists:  A B C D E F G H I J K L M N O P Q R S T U V W X Y Z # 

Running Like The Wind Tabs (ver.1)

Marshall Tucker Band Tabs
 Rating:
4.3/5 (6 votes)
Running Like The Wind lessons Tabs too difficult? Try these video lessons and learn fast
                BAND: The Marshall Tucker Band

h= hammer on
p= pull off
b= bend
r=return

 INTRO:

e------------------------|-----------------------------------|
B------------------------|-----------------------------------|
G-----5-7b-5---7br(slow)-|---------4-5-4---------------4-5-4-|
D-5h7--------------------|-7p5h7-----------7p5h7---5h7-------|
A------------------------|-----------------------------------|
E------------------------|-----------------------------------|

e-------------------------------|-----------------------|
B---------------------7---------|-----------------------|
G---------4-5-4---5-7-----7-5-4-|---------4-5-4---------|
D-7p5h7-------------------------|-7p5h7-----------7-5---|
A-------------------------------|---------------------7-|
E-------------------------------|-----------------------|

e----------------------------12------------|-------------------------------|
B------------12-13-12--13-15------15-13-12-|-----------12-13-12------------|
G-14-12-14---------------------------------|-14-12-14-------------14-12----|
D------------------------------------------|----------------------------14-|
A------------------------------------------|-------------------------------|
E------------------------------------------|-------------------------------|

e-------------------------------|
B-------------------------------|
G-------------------------------|
D--12---------------------------|
A-----15-14---------------------|
E-------------------------------|

 CHORDS:

    Am     G6     Fmaj7
e|--0-------------0-------------------|
B|--1-------------1-------------------|
G|--2-------------2-------------------|
D|--2-------------3-------------------|
A|---------2--------------------------|
E|---------3--------------------------|

 FILL:

   Fmaj7
e|-----------------------------------------|
B|-----------------------------------------|
G|-------------2---4-----5----4---2--------|
D|----3---5-----------------------------5--|
A|-----------------------------------------|
E|-----------------------------------------|


       Am           G6
I say..how can you say

          Fmaj7            G6
Where I'll be from day to day

        Am          G6   Fmaj7
When I don't even know myself

         Am          G6
But the life that I lead

  Fmaj7        G6
Is so full of mysteries

       Am      G6           Fmaj7
That's why I'm always on my way

             Am      G6      Fmaj7
And I'll be running like the wind

 Am      G6      Fmaj7 + Fill
Running like the wind

     Am            G6
The words you're about to hear 

    Fmaj7               G6
Even to me they're not very clear

     Am           G6          Fmaj7
You see love has never come my way

     Am               G6
But come and fly with me

        Fmaj7        G6
Through life's many fantasies

          Am         G6             Fmaj7
And I'll show you a new dream every day

             Am      G6      Fmaj7
And I'll be running like the wind

 Am      G6      Fmaj7
Running like the wind

           Fmaj7          G6
And you'll never hear us say 

   Fmaj7           G6
We might be back again someday

        Fmaj7             G6              Fmaj7 + Fill
Well we won't...We'll be running like the wind

     Am           G6
I'm sure in your mind

         Fmaj7        G6
That you vision this paradise

    Am            G6          Fmaj7
A place we could live for evermore

          Am              G6
So let's search wide and far

      Fmaj7              G6
For a mountain or that shooting star

   Am              G6         Fmaj7
A sign that might show us the way

              Am      G6      Fmaj7
And we'll be running like the wind

 Am      G6      Fmaj7
Running like the wind

           Fmaj7          G6
And you'll never hear us say

        Fmaj7           G6
That we might be back again someday

        Fmaj7             G6              Fmaj7 + Fill
Well we won't...We'll be running like the wind

     Am            G6
One day you'll realize

       Fmaj7        G6
As you look into my aging eyes

        Am      G6            Fmaj7
You'll hold my hand and you'll say

            Am               G6
That you'll always drift my way

          Fmaj7               G6
Like two leaves blowing on an autumn day

     Am                         G6         Fmaj7
And love me as long as there's wind in the sky

             Am      G6      Fmaj7
And I'll be running like the wind

 Am      G6      Fmaj7
Running like the wind

           Fmaj7          G6
And you'll never hear us say

        Fmaj7           G6
That we might be back again someday

        Fmaj7            G6              Fmaj7
Well we won't..We'll be running like the wind

 Am      G6      Fmaj7
Running like the wind

 Am      G6      Fmaj7
Running like the wind

 Am      G6      Fmaj7
Running Like the wind
            
Submit corrections

comments powered by Disqus
↑ Back to top | Marshall Tucker Band Tabs for Running Like The Wind. Lyrics for acoustic guitar and electric guitar. Tablatures and chords are parodies/interpretations of the original songs. You may use it for private study, scholarship, research or language learning purposes only