>
 >
Face Down In The Blues

Face Down In The Blues Guitar Tabs

Marshall Tucker Band - Face Down In The Blues chords, tabs, tablatures, lyrics

Guitar lessons | Add/correct | Request | Top 50 tabs Artists:  A B C D E F G H I J K L M N O P Q R S T U V W X Y Z 0-9

Face Down In The Blues Guitar Tabs – Marshall Tucker Band

CD, Sheet music, Poster

Do you like Face Down In The Blues? Share with your friends now
Tabs
Tuning: Standard



Rhythm Guitar 1 = main riff, continues throughout song
Rhythm Guitar 2 = very quiet, listen carefully
Lead Guitar 1 = uses a wah pedal
Lead Guitar 2 = does not use a wah pedal 




RHYTHM GUITAR 1


 
E||----------------------------------|------------------------------------|
B||----------------------------------|------------------------------------|
G||----------------------------------|------------------------------------|
D||----------9----9--7----7----------|----------9----9--7----7---------7--|
A||--------------------------9----9--|--------------------------7h--9-----|
E||--7----7--------------------------|--7----7----------------------------|

 
----------------------------------|------------------------------------|
----------------------------------|------------------------------------|
----------------------------------|------------------------------------|
----------9----9--7----7----------|----------9----9--7----7---------7--|
--------------------------9----9--|--------------------------7h--9-----|
--7----7--------------------------|--7----7----------------------------|

 
----------------------------------|------------------------------------|
----------------------------------|------------------------------------|
----------------------------------|------------------------------------|
----------9----9--7----7----------|----------9----9--7----7---------7--|
--------------------------9----9--|--------------------------7h--9-----|
--7----7--------------------------|--7----7----------------------------|

 
----------------------------------|------------------------------------|
----------------------------------|------------------------------------|
----------------------------------|------------------------------------|
----------9----9--7----7----------|----------9----9--7----7---------7--|
--------------------------9----9--|--------------------------7h--9-----|
--7----7--------------------------|--7----7----------------------------|

 
----------------------------------|------------------------------------|
----------------------------------|------------------------------------|
----------------------------------|------------------------------------|
----------9----9--7----7----------|----------9----9--7----7---------7--|
--------------------------9----9--|--------------------------7h--9-----|
--7----7--------------------------|--7----7----------------------------|

 
----------------------------------|----------------------------------|
----------------------------------|----------------------------------|
----------------------------------|----------------------------------|
----------9----9--7----7----------|----------9----9--7----7----------|
--------------------------9----9--|--------------------------9----9--|
--7----7--------------------------|--7----7--------------------------|

\   
----------------------------------|----------------------------------|
----------------------------------|----------------------------------|
----------9----9--7----7----------|----------9----9--7----7----------|
--------------------------9----9--|--------------------------9----9--|
--7----7--------------------------|--7----7--------------------------|
----------------------------------|----------------------------------|

 
----------------------------------|----------------------------------|
----------------------------------|----------------------------------|
----------------------------------|----------------------------------|
----------9----9--7----7----------|----------9----9--7----7----------|
--------------------------9----9--|--------------------------9----9--|
--7----7--------------------------|--7----7--------------------------|

 
--------------------------------------|----------------------------------|
--------------------------------------|----------------------------------|
----------11----11--9----9------------|----------9----9--7----7----------|
----------------------------11----11--|--------------------------9----9--|
--9----9------------------------------|--7----7--------------------------|
--------------------------------------|----------------------------------|

 
----------------------------------|------------------------------------|
----------------------------------|------------------------------------|
----------------------------------|------------------------------------|
----------9----9--7----7----------|----------9----9--7----7---------7--|
--------------------------9----9--|--------------------------7h--9-----|
--7----7--------------------------|--7----7----------------------------|

   
----------------------------------|----------------------------------|
----------------------------------|----------------------------------|
----------------------------------|----------------------------------|
----------9----9--7----7----------|----------9----9--7----7----------|
--------------------------9----9--|--------------------------9----9--|
--7----7--------------------------|--7----7--------------------------|

 
----------------------------------|----------------------------------|
----------------------------------|----------------------------------|
----------------------------------|----------------------------------|
----------9----9--7----7----------|----------9----9--7----7----------|
--------------------------9----9--|--------------------------9----9--|
--7----7--------------------------|--7----7--------------------------|

 
----------------------------------|----------------------------------|
----------------------------------|----------------------------------|
----------9----9--7----7----------|----------9----9--7----7----------|
--------------------------9----9--|--------------------------9----9--|
--7----7--------------------------|--7----7--------------------------|
----------------------------------|----------------------------------|

 
----------------------------------|----------------------------------|
----------------------------------|----------------------------------|
----------------------------------|----------------------------------|
----------9----9--7----7----------|----------9----9--7----7----------|
--------------------------9----9--|--------------------------9----9--|
--7----7--------------------------|--7----7--------------------------|

 
--------------------------------------|----------------------------------|
--------------------------------------|----------------------------------|
----------11----11--9----9------------|----------9----9--7----7----------|
----------------------------11----11--|--------------------------9----9--|
--9----9------------------------------|--7----7--------------------------|
--------------------------------------|----------------------------------|

 
----------------------------------|----------------------------------|
----------------------------------|----------------------------------|
----------------------------------|----------------------------------|
----------9----9--7----7----------|----------9----9--7----7----------|
--------------------------9----9--|--------------------------9----9--|
--7----7--------------------------|--7----7--------------------------|

 
----------------------------------|----------------------------------|
----------------------------------|----------------------------------|
----------------------------------|----------------------------------|
----------9----9--7----7----------|----------9----9--7----7----------|
--------------------------9----9--|--------------------------9----9--|
--7----7--------------------------|--7----7--------------------------|

 
----------------------------------|----------------------------------|
----------------------------------|----------------------------------|
----------------------------------|----------------------------------|
----------9----9--7----7----------|----------9----9--7----7----------|
--------------------------9----9--|--------------------------9----9--|
--7----7--------------------------|--7----7--------------------------|

 
----------------------------------|----------------------------------|
----------------------------------|----------------------------------|
----------9----9--7----7----------|----------9----9--7----7----------|
--------------------------9----9--|--------------------------9----9--|
--7----7--------------------------|--7----7--------------------------|
----------------------------------|----------------------------------|

 
----------------------------------|----------------------------------|
----------------------------------|----------------------------------|
----------------------------------|----------------------------------|
----------9----9--7----7----------|----------9----9--7----7----------|
--------------------------9----9--|--------------------------9----9--|
--7----7--------------------------|--7----7--------------------------|

 
--------------------------------------|----------------------------------|
--------------------------------------|----------------------------------|
----------11----11--9----9------------|----------9----9--7----7----------|
----------------------------11----11--|--------------------------9----9--|
--9----9------------------------------|--7----7--------------------------|
--------------------------------------|----------------------------------|

 
----------------------------------|----------------------------------|
----------------------------------|----------------------------------|
----------------------------------|----------------------------------|
----------9----9--7----7----------|----------9----9--7----7----------|
--------------------------9----9--|--------------------------9----9--|
--7----7--------------------------|--7----7--------------------------|


----------------------------------|----------------------------------|
----------------------------------|----------------------------------|
----------------------------------|----------------------------------|
----------9----9--7----7----------|----------9----9--7----7----------|
--------------------------9----9--|--------------------------9----9--|
--7----7--------------------------|--7----7--------------------------|

 
----------------------------------|----------------------------------|
----------------------------------|----------------------------------|
----------------------------------|----------------------------------|
----------9----9--7----7----------|----------9----9--7----7----------|
--------------------------9----9--|--------------------------9----9--|
--7----7--------------------------|--7----7--------------------------|

 
----------------------------------|----------------------------------|
----------------------------------|----------------------------------|
----------9----9--7----7----------|----------9----9--7----7----------|
--------------------------9----9--|--------------------------9----9--|
--7----7--------------------------|--7----7--------------------------|
----------------------------------|----------------------------------|

 
----------------------------------|----------------------------------|
----------------------------------|----------------------------------|
----------------------------------|----------------------------------|
----------9----9--7----7----------|----------9----9--7----7----------|
--------------------------9----9--|--------------------------9----9--|
--7----7--------------------------|--7----7--------------------------|

 
--------------------------------------|----------------------------------|
--------------------------------------|----------------------------------|
----------11----11--9----9------------|----------9----9--7----7----------|
----------------------------11----11--|--------------------------9----9--|
--9----9------------------------------|--7----7--------------------------|
--------------------------------------|----------------------------------|


----------------------------------|----------------------------------|
----------------------------------|----------------------------------|
----------------------------------|----------------------------------|
----------9----9--7----7----------|----------9----9--7----7----------|
--------------------------9----9--|--------------------------9----9--|
--7----7--------------------------|--7----7--------------------------|

 
---------------------7-|--L--------------------7--|--L------------------7--|
---------------------7-|--L--------------------7--|--L------------------7--|
---------------------8-|--L--------------------8--|--L------------------8--|
---------------------9-|--L--------------------9--|--L------------------9--|
---------------------9-|--L--------------------9--|--L------------------9--|
---------------------7-|--L--------------------7--|--L------------------7--|

 
--L--------------------|----------------------------------|
--L--------------------|----------------------------------|
--L--------------------|----------9----9--7----7----------|
--L--------------------|----------9----9--7----7--9----9--|
--L--------------------|--7----7--------------------------|
--L--------------------|----------------------------------|

 
----------------------------------|----------------------------------|
----------------------------------|----------------------------------|
----------9----9--7----7----------|----------------------------------|
----------9----9--7----7--9----9--|----------9----9--7----7----------|
--7----7--------------------------|----------9----9--7----7--9----9--|
----------------------------------|--7----7--------------------------|

 
----------------------------------|--------------------------------------|
----------------------------------|--------------------------------------|
----------------------------------|----------11----11--9----9------------|
----------9----9--7----7----------|----------11----11--9----9--11----11--|
----------9----9--7----7--9----9--|--9----9------------------------------|
--7----7--------------------------|--------------------------------------|

 
----------------------------------|----------------------------------|
----------------------------------|----------------------------------|
----------9----9--7----7----------|----------------------------------|
----------9----9--7----7--9----9--|----------9----9--7----7----------|
--7----7--------------------------|----------9----9--7----7--9----9--|
----------------------------------|--7----7--------------------------|

 
----------------------------------|----------------------------------|
----------------------------------|----------------------------------|
----------------------------------|----------------------------------|
----------9----9--7----7----------|----------9----9--7----7----------|
----------9----9--7----7--9----9--|--------------------------9----9--|
--7----7--------------------------|--7----7--------------------------|

 
----------------------------------|----------------------------------|
----------------------------------|----------------------------------|
----------------------------------|----------------------------------|
----------9----9--7----7----------|----------9----9--7----7----------|
--------------------------9----9--|--------------------------9----9--|
--7----7--------------------------|--7----7--------------------------|

 
----------------------------------|----------------------------------|
----------------------------------|----------------------------------|
----------------------------------|----------9----9--7----7----------|
----------9----9--7----7----------|--------------------------9----9--|
--------------------------9----9--|--7----7--------------------------|
--7----7--------------------------|----------------------------------|

 
----------------------------------|----------------------------------|
----------------------------------|----------------------------------|
----------9----9--7----7----------|----------------------------------|
--------------------------9----9--|----------9----9--7----7----------|
--7----7--------------------------|--------------------------9----9--|
----------------------------------|--7----7--------------------------|

 
----------------------------------|--------------------------------------|
----------------------------------|--------------------------------------|
----------------------------------|----------11----11--9----9------------|
----------9----9--7----7----------|----------------------------11----11--|
--------------------------9----9--|--9----9------------------------------|
--7----7--------------------------|--------------------------------------|

 
----------------------------------|----------------------------------|
----------------------------------|----------------------------------|
----------9----9--7----7----------|----------------------------------|
--------------------------9----9--|----------9----9--7----7----------|
--7----7--------------------------|--------------------------9----9--|
----------------------------------|--7----7--------------------------|

 
----------------------------------|----------------------------------|
----------------------------------|----------------------------------|
----------------------------------|----------------------------------|
----------9----9--7----7----------|----------9----9--7----7----------|
--------------------------9----9--|--------------------------9----9--|
--7----7--------------------------|--7----7--------------------------|

 
----------------------------------|----------------------------------|
----------------------------------|----------------------------------|
----------------------------------|----------------------------------|
----------9----9--7----7----------|----------9----9--7----7----------|
--------------------------9----9--|--------------------------9----9--|
--7----7--------------------------|--7----7--------------------------|

 
----------------------------------|----------------------------------|
----------------------------------|----------------------------------|
----------------------------------|----------9----9--7----7----------|
----------9----9--7----7----------|--------------------------9----9--|
--------------------------9----9--|--7----7--------------------------|
--7----7--------------------------|----------------------------------|

 
----------------------------------|----------------------------------|
----------------------------------|----------------------------------|
----------9----9--7----7----------|----------------------------------|
--------------------------9----9--|----------9----9--7----7----------|
--7----7--------------------------|--------------------------9----9--|
----------------------------------|--7----7--------------------------|

 
----------------------------------|--------------------------------------|
----------------------------------|--------------------------------------|
----------------------------------|----------11----11--9----9------------|
----------9----9--7----7----------|----------------------------11----11--|
--------------------------9----9--|--9----9------------------------------|
--7----7--------------------------|--------------------------------------|

 
----------------------------------|-----|----------------------7------|
----------------------------------|-----|----------------------7------|
----------9----9--7----7----------|-----|----------------------8------|
--------------------------9----9--|-----|----------------------9------|
--7----7--------------------------|-----|----------------------9------|
----------------------------------|-----|----------------------7------|

 
--L-----------------||
--L-----------------||
--L-----------------||
--L-----------------||
--L-----------------||
--L-----------------||










RHYTHM GUITAR 2



E||-------|-------|-------|-------|-------|-------|-------|-------|
B||-------|-------|-------|-------|-------|-------|-------|-------|
G||-------|-------|-------|-------|-------|-------|-------|-------|
D||-------|-------|-------|-------|-------|-------|-------|-------|
A||-------|-------|-------|-------|-------|-------|-------|-------|
E||-------|-------|-------|-------|-------|-------|-------|-------|

 
-------7--7-----7-----7--|-------7--7-----7-----7--|-------7--7-----7-----7--|
-------7--7-----7-----7--|-------7--7-----7-----7--|-------7--7-----7-----7--|
-------8--8-----8-----8--|-------8--8-----8-----8--|-------8--8-----8-----8--|
-------9--9-----9-----9--|-------9--9-----9-----9--|-------9--9-----9-----9--|
-------9--9-----9-----9--|-------9--9-----9-----9--|-------9--9-----9-----9--|
-------7--7-----7-----7--|-------7--7-----7-----7--|-------7--7-----7-----7--|

 
-------7--7-----7-----7--|-------7--7-----7-----7--|-------7--7-----7-----7--|
-------7--7-----7-----7--|-------9--9-----9-----9--|-------9--9-----9-----9--|
-------8--8-----8-----8--|-------7--7-----7-----7--|-------7--7-----7-----7--|
-------9--9-----9-----9--|-------9--9-----9-----9--|-------9--9-----9-----9--|
-------9--9-----9-----9--|-------7--7-----7-----7--|-------7--7-----7-----7--|
-------7--7-----7-----7--|-------------------------|-------------------------|

 
-------7--7-----7-----7--|-------7--7-----7-----7--|
-------7--7-----7-----7--|-------7--7-----7-----7--|
-------8--8-----8-----8--|-------8--8-----8-----8--|
-------9--9-----9-----9--|-------9--9-----9-----9--|
-------9--9-----9-----9--|-------9--9-----9-----9--|
-------7--7-----7-----7--|-------7--7-----7-----7--|

 
--------9---9------9------9--|-------7--7-----7-----7--|
-------11--11-----11-----11--|-------9--9-----9-----9--|
--------9---9------9------9--|-------7--7-----7-----7--|
-------11--11-----11-----11--|-------9--9-----9-----9--|
--------9---9------9------9--|-------7--7-----7-----7--|
-----------------------------|-------------------------|

 
-------7--7-----7-----7--|-------7--7-----7-----7--|-------7--7-----7-----7--|
-------7--7-----7-----7--|-------7--7-----7-----7--|-------7--7-----7-----7--|
-------8--8-----8-----8--|-------8--8-----8-----8--|-------8--8-----8-----8--|
-------9--9-----9-----9--|-------9--9-----9-----9--|-------9--9-----9-----9--|
-------9--9-----9-----9--|-------9--9-----9-----9--|-------9--9-----9-----9--|
-------7--7-----7-----7--|-------7--7-----7-----7--|-------7--7-----7-----7--|


-------7--7-----7-----7--|-------7--7-----7-----7--|-------7--7-----7-----7--|
-------7--7-----7-----7--|-------7--7-----7-----7--|-------7--7-----7-----7--|
-------8--8-----8-----8--|-------8--8-----8-----8--|-------8--8-----8-----8--|
-------9--9-----9-----9--|-------9--9-----9-----9--|-------9--9-----9-----9--|
-------9--9-----9-----9--|-------9--9-----9-----9--|-------9--9-----9-----9--|
-------7--7-----7-----7--|-------7--7-----7-----7--|-------7--7-----7-----7--|

 
-------7--7-----7-----7--|-------7--7-----7-----7--|-------7--7-----7-----7--|
-------9--9-----9-----9--|-------9--9-----9-----9--|-------7--7-----7-----7--|
-------7--7-----7-----7--|-------7--7-----7-----7--|-------8--8-----8-----8--|
-------9--9-----9-----9--|-------9--9-----9-----9--|-------9--9-----9-----9--|
-------7--7-----7-----7--|-------7--7-----7-----7--|-------9--9-----9-----9--|
-------------------------|-------------------------|-------7--7-----7-----7--|

 
-------7--7-----7-----7--|--------9---9------9------9--|
-------7--7-----7-----7--|-------11--11-----11-----11--|
-------8--8-----8-----8--|--------9---9------9------9--|
-------9--9-----9-----9--|-------11--11-----11-----11--|
-------9--9-----9-----9--|--------9---9------9------9--|
-------7--7-----7-----7--|-----------------------------|

 
-------7--7-----7-----7--|-------7--7-----7-----7--|-------7--7-----7-----7--|
-------9--9-----9-----9--|-------7--7-----7-----7--|-------7--7-----7-----7--|
-------7--7-----7-----7--|-------8--8-----8-----8--|-------8--8-----8-----8--|
-------9--9-----9-----9--|-------9--9-----9-----9--|-------9--9-----9-----9--|
-------7--7-----7-----7--|-------9--9-----9-----9--|-------9--9-----9-----9--|
-------------------------|-------7--7-----7-----7--|-------7--7-----7-----7--|

 
-------7--7-----7-----7--|-------7--7-----7-----7--|-------7--7-----7-----7--|
-------7--7-----7-----7--|-------7--7-----7-----7--|-------7--7-----7-----7--|
-------8--8-----8-----8--|-------8--8-----8-----8--|-------8--8-----8-----8--|
-------9--9-----9-----9--|-------9--9-----9-----9--|-------9--9-----9-----9--|
-------9--9-----9-----9--|-------9--9-----9-----9--|-------9--9-----9-----9--|
-------7--7-----7-----7--|-------7--7-----7-----7--|-------7--7-----7-----7--|

 
-------7--7-----7-----7--|-------7--7-----7-----7--|-------7--7-----7-----7--|
-------7--7-----7-----7--|-------9--9-----9-----9--|-------9--9-----9-----9--|
-------8--8-----8-----8--|-------7--7-----7-----7--|-------7--7-----7-----7--|
-------9--9-----9-----9--|-------9--9-----9-----9--|-------9--9-----9-----9--|
-------9--9-----9-----9--|-------7--7-----7-----7--|-------7--7-----7-----7--|
-------7--7-----7-----7--|-------------------------|-------------------------|

 
-------7--7-----7-----7--|-------7--7-----7-----7--|
-------7--7-----7-----7--|-------7--7-----7-----7--|
-------8--8-----8-----8--|-------8--8-----8-----8--|
-------9--9-----9-----9--|-------9--9-----9-----9--|
-------9--9-----9-----9--|-------9--9-----9-----9--|
-------7--7-----7-----7--|-------7--7-----7-----7--|

 
--------9---9------9------9--|-------7--7-----7-----7--|
-------11--11-----11-----11--|-------9--9-----9-----9--|
--------9---9------9------9--|-------7--7-----7-----7--|
-------11--11-----11-----11--|-------9--9-----9-----9--|
--------9---9------9------9--|-------7--7-----7-----7--|
-----------------------------|-------------------------|

 
-------7--7-----7-----7--|-------7--7-----7-----7--|-------7--7-----7-----7--|
-------7--7-----7-----7--|-------7--7-----7-----7--|-------7--7-----7-----7--|
-------8--8-----8-----8--|-------8--8-----8-----8--|-------8--8-----8-----8--|
-------9--9-----9-----9--|-------9--9-----9-----9--|-------9--9-----9-----9--|
-------9--9-----9-----9--|-------9--9-----9-----9--|-------9--9-----9-----9--|
-------7--7-----7-----7--|-------7--7-----7-----7--|-------7--7-----7-----7--|

 
-------7--7-----7-----7--|-------7--7-----7-----7--|-------7--7-----7-----7--|
-------7--7-----7-----7--|-------7--7-----7-----7--|-------7--7-----7-----7--|
-------8--8-----8-----8--|-------8--8-----8-----8--|-------8--8-----8-----8--|
-------9--9-----9-----9--|-------9--9-----9-----9--|-------9--9-----9-----9--|
-------9--9-----9-----9--|-------9--9-----9-----9--|-------9--9-----9-----9--|
-------7--7-----7-----7--|-------7--7-----7-----7--|-------7--7-----7-----7--|

 
-------7--7-----7-----7--|-------7--7-----7-----7--|-------7--7-----7-----7--|
-------9--9-----9-----9--|-------9--9-----9-----9--|-------7--7-----7-----7--|
-------7--7-----7-----7--|-------7--7-----7-----7--|-------8--8-----8-----8--|
-------9--9-----9-----9--|-------9--9-----9-----9--|-------9--9-----9-----9--|
-------7--7-----7-----7--|-------7--7-----7-----7--|-------9--9-----9-----9--|
-------------------------|-------------------------|-------7--7-----7-----7--|

 
-------7--7-----7-----7--|--------9---9------9------9--|
-------7--7-----7-----7--|-------11--11-----11-----11--|
-------8--8-----8-----8--|--------9---9------9------9--|
-------9--9-----9-----9--|-------11--11-----11-----11--|
-------9--9-----9-----9--|--------9---9------9------9--|
-------7--7-----7-----7--|-----------------------------|

 
-------7--7-----7-----7--|-------7--7-----7-----7--|-------7--7-----7-----7--|
-------9--9-----9-----9--|-------7--7-----7-----7--|-------7--7-----7-----7--|
-------7--7-----7-----7--|-------8--8-----8-----8--|-------8--8-----8-----8--|
-------9--9-----9-----9--|-------9--9-----9-----9--|-------9--9-----9-----9--|
-------7--7-----7-----7--|-------9--9-----9-----9--|-------9--9-----9-----9--|
-------------------------|-------7--7-----7-----7--|-------7--7-----7-----7--|

   
---------------------7-|--L--------------------7--|--L------------------7--|
---------------------7-|--L--------------------7--|--L------------------7--|
---------------------8-|--L--------------------8--|--L------------------8--|
---------------------9-|--L--------------------9--|--L------------------9--|
---------------------9-|--L--------------------9--|--L------------------9--|
---------------------7-|--L--------------------7--|--L------------------7--|

 
--L--------------------|-------7--7-----7-----7--|-------7--7-----7-----7--|
--L--------------------|-------9--9-----9-----9--|-------9--9-----9-----9--|
--L--------------------|-------7--7-----7-----7--|-------7--7-----7-----7--|
--L--------------------|-------9--9-----9-----9--|-------9--9-----9-----9--|
--L--------------------|-------7--7-----7-----7--|-------7--7-----7-----7--|
--L--------------------|-------------------------|-------------------------|

 
-------7--7-----7-----7--|-------7--7-----7-----7--|
-------7--7-----7-----7--|-------7--7-----7-----7--|
-------8--8-----8-----8--|-------8--8-----8-----8--|
-------9--9-----9-----9--|-------9--9-----9-----9--|
-------9--9-----9-----9--|-------9--9-----9-----9--|
-------7--7-----7-----7--|-------7--7-----7-----7--|

 
--------9---9------9------9--|-------7--7-----7-----7--|
-------11--11-----11-----11--|-------9--9-----9-----9--|
--------9---9------9------9--|-------7--7-----7-----7--|
-------11--11-----11-----11--|-------9--9-----9-----9--|
--------9---9------9------9--|-------7--7-----7-----7--|
-----------------------------|-------------------------|

 
-------7--7-----7-----7--|-------7--7-----7-----7--|-------7--7-----7-----7--|
-------7--7-----7-----7--|-------7--7-----7-----7--|-------7--7-----7-----7--|
-------8--8-----8-----8--|-------8--8-----8-----8--|-------8--8-----8-----8--|
-------9--9-----9-----9--|-------9--9-----9-----9--|-------9--9-----9-----9--|
-------9--9-----9-----9--|-------9--9-----9-----9--|-------9--9-----9-----9--|
-------7--7-----7-----7--|-------7--7-----7-----7--|-------7--7-----7-----7--|

 
-------7--7-----7-----7--|-------7--7-----7-----7--|-------7--7-----7-----7--|
-------7--7-----7-----7--|-------7--7-----7-----7--|-------7--7-----7-----7--|
-------8--8-----8-----8--|-------8--8-----8-----8--|-------8--8-----8-----8--|
-------9--9-----9-----9--|-------9--9-----9-----9--|-------9--9-----9-----9--|
-------9--9-----9-----9--|-------9--9-----9-----9--|-------9--9-----9-----9--|
-------7--7-----7-----7--|-------7--7-----7-----7--|-------7--7-----7-----7--|

 
-------7--7-----7-----7--|-------7--7-----7-----7--|-------7--7-----7-----7--|
-------9--9-----9-----9--|-------9--9-----9-----9--|-------7--7-----7-----7--|
-------7--7-----7-----7--|-------7--7-----7-----7--|-------8--8-----8-----8--|
-------9--9-----9-----9--|-------9--9-----9-----9--|-------9--9-----9-----9--|
-------7--7-----7-----7--|-------7--7-----7-----7--|-------9--9-----9-----9--|
-------------------------|-------------------------|-------7--7-----7-----7--|

 
-------7--7-----7-----7--|--------9---9------9------9--|
-------7--7-----7-----7--|-------11--11-----11-----11--|
-------8--8-----8-----8--|--------9---9------9------9--|
-------9--9-----9-----9--|-------11--11-----11-----11--|
-------9--9-----9-----9--|--------9---9------9------9--|
-------7--7-----7-----7--|-----------------------------|

 
-------7--7-----7-----7--|-------7--7-----7-----7--|-------7--7-----7-----7--|
-------9--9-----9-----9--|-------7--7-----7-----7--|-------7--7-----7-----7--|
-------7--7-----7-----7--|-------8--8-----8-----8--|-------8--8-----8-----8--|
-------9--9-----9-----9--|-------9--9-----9-----9--|-------9--9-----9-----9--|
-------7--7-----7-----7--|-------9--9-----9-----9--|-------9--9-----9-----9--|
-------------------------|-------7--7-----7-----7--|-------7--7-----7-----7--|

 
-------7--7-----7-----7--|-------7--7-----7-----7--|-------7--7-----7-----7--|
-------7--7-----7-----7--|-------7--7-----7-----7--|-------7--7-----7-----7--|
-------8--8-----8-----8--|-------8--8-----8-----8--|-------8--8-----8-----8--|
-------9--9-----9-----9--|-------9--9-----9-----9--|-------9--9-----9-----9--|
-------9--9-----9-----9--|-------9--9-----9-----9--|-------9--9-----9-----9--|
-------7--7-----7-----7--|-------7--7-----7-----7--|-------7--7-----7-----7--|

 
-------7--7-----7-----7--|-------7--7-----7-----7--|-------7--7-----7-----7--|
-------7--7-----7-----7--|-------9--9-----9-----9--|-------9--9-----9-----9--|
-------8--8-----8-----8--|-------7--7-----7-----7--|-------7--7-----7-----7--|
-------9--9-----9-----9--|-------9--9-----9-----9--|-------9--9-----9-----9--|
-------9--9-----9-----9--|-------7--7-----7-----7--|-------7--7-----7-----7--|
-------7--7-----7-----7--|-------------------------|-------------------------|

 
-------7--7-----7-----7--|-------7--7-----7-----7--|
-------7--7-----7-----7--|-------7--7-----7-----7--|
-------8--8-----8-----8--|-------8--8-----8-----8--|
-------9--9-----9-----9--|-------9--9-----9-----9--|
-------9--9-----9-----9--|-------9--9-----9-----9--|
-------7--7-----7-----7--|-------7--7-----7-----7--|

 
--------9---9------9------9--|-------7--7-----7-----7--|-----|
-------11--11-----11-----11--|-------9--9-----9-----9--|-----|
--------9---9------9------9--|-------7--7-----7-----7--|-----|
-------11--11-----11-----11--|-------9--9-----9-----9--|-----|
--------9---9------9------9--|-------7--7-----7-----7--|-----|
-----------------------------|-------------------------|-----|

 
----------------------7------|--L-----------------||
----------------------7------|--L-----------------||
----------------------8------|--L-----------------||
----------------------9------|--L-----------------||
----------------------9------|--L-----------------||
----------------------7------|--L-----------------||










LEAD GUITAR 1 (wah pedal)


 
E||-------|-------|-------|-------------------------|--------------------|
B||-------|-------|-------|----------------x--x--x--|--7-----------------|
G||-------|-------|-------|----------------x--x--x--|--7-----------------|
D||-------|-------|-------|----------------x--x--x--|--------------------|
A||-------|-------|-------|-------------------------|--------------------|
E||-------|-------|-------|-------------------------|--------------------|

  
------------------------|---------------------------------------|
------------------------|---------------------------------------|
------------------------|-------7--9--<>9br----7-----9-----7--L-|
--9--7------------------|-------------------------9-------------|
--------9---------------|---------------------------------------|
------------------------|---------------------------------------|

 
-----------------------------------|-------|-------|-------|-------|-------|
-----------------------------------|-------|-------|-------|-------|-------|
--L--------------------------------|-------|-------|-------|-------|-------|
----------9--7-----7----9~----L----|-------|-------|-------|-------|-------|
----------------9------------------|-------|-------|-------|-------|-------|
-----------------------------------|-------|-------|-------|-------|-------|

 
-------|-------|-------|-------|-------|-------|-------|-------|-------|-------|
-------|-------|-------|-------|-------|-------|-------|-------|-------|-------|
-------|-------|-------|-------|-------|-------|-------|-------|-------|-------|
-------|-------|-------|-------|-------|-------|-------|-------|-------|-------|
-------|-------|-------|-------|-------|-------|-------|-------|-------|-------|
-------|-------|-------|-------|-------|-------|-------|-------|-------|-------|


-------|-------|-------|-------|-------|-------|-------|-------|-------|
-------|-------|-------|-------|-------|-------|-------|-------|-------|
-------|-------|-------|-------|-------|-------|-------|-------|-------|
-------|-------|-------|-------|-------|-------|-------|-------|-------|
-------|-------|-------|-------|-------|-------|-------|-------|-------|
-------|-------|-------|-------|-------|-------|-------|-------|-------|

 
---------------------------|------------------------------------|
--7------------------------|------------------------------------|
--7------------------------|--7---------------------------------|
---------------------7--9--|-------<>9~-------------------7--9--|
------------------9--------|---------------------------9--------|
---------------------------|------------------------------------|

 
------------------------------------|-------------------------|
--------------7---------------------|----------------------7--|
--7b-------------7br--------7----6--|----------------------7--|
-----------------------9-7----------|--<>9~-------------------|
------------------------------------|-------------------------|
------------------------------------|-------------------------|

         
----------------------------7-----|----------------------------------|
--L----------------------------7--|--10b----10b~---------------------|
--L------------------7--9b--------|----------------------------------|
----------------------------------|----------------------------------|
----------------------------------|----------------------------------|
----------------------------------|----------------------------------|

  
--12b---------10--12--10-----------------|--------------------------------|
---------------------------------12------|--12~----12~----------------9b--|
-------------------------------------11--|--------------------------------|
-----------------------------------------|--------------------------------|
-----------------------------------------|--------------------------------|
-----------------------------------------|--------------------------------|

 
----------------------------------|--------------------------------------------|
--L----7--9-----7~-----------10b--|---L----L-10b--10--7------------------------|
-------------9--------------------|----------------------9br--7-----9----7~--L-|
----------------------------------|------------------------------9-------------|
----------------------------------|--------------------------------------------|
----------------------------------|--------------------------------------------|

 
-----------------------------------|--------------------------------------|
-----------------------------------|--------------------------7-----------|
-----------------------------------|--------------------------7-----9-----|
-------9p--7-----7-----7-----7-----|--7-----7-----7-----9-----------------|
--------------9--------------------|--------------------------------------|
-----------------------------------|--------------------------------------|

 
-------|-------|-------|-------|-------|-------|-------|-------|-------|-------|
-------|-------|-------|-------|-------|-------|-------|-------|-------|-------|
-------|-------|-------|-------|-------|-------|-------|-------|-------|-------|
-------|-------|-------|-------|-------|-------|-------|-------|-------|-------|
-------|-------|-------|-------|-------|-------|-------|-------|-------|-------|
-------|-------|-------|-------|-------|-------|-------|-------|-------|-------|

 
-------|-------|-------|-------|-------|-------|-------|-------|-------|-------|
-------|-------|-------|-------|-------|-------|-------|-------|-------|-------|
-------|-------|-------|-------|-------|-------|-------|-------|-------|-------|
-------|-------|-------|-------|-------|-------|-------|-------|-------|-------|
-------|-------|-------|-------|-------|-------|-------|-------|-------|-------|
-------|-------|-------|-------|-------|-------|-------|-------|-------|-------|

 
-------|-------|-------|-------|-----------------------------------|
-------|-------|-------|-------|-----------------------------------|
-------|-------|-------|-------|-------------------------<>7-------|
-------|-------|-------|-------|--------------------(7)---------7--|
-------|-------|-------|-------|-----------------------------------|
-------|-------|-------|-------|-----------------------------------|

 
-----------------------|-------------------------------------|
-----------------------|---------10------------------9----7--|
-----------------------|----------9brb---------7-----9----7--|
--<>9~-----------------|--------------------------9----------|
-----------------------|-------------------------------------|
-----------------------|-------------------------------------|


---------------------------------|-----------------------------------|
--L------------------------------|-----------------------------------|
--L------------------------------|-------------------------<>7-------|
----------9--7-------------------|--------------------(7)---------7--|
----------------9~---------------|-----------------------------------|
---------------------------------|-----------------------------------|

 
-----------------------|-----------------------------------7--|
-----------------------|---------10---------------------7-----|
-----------------------|----------9brb-----------7--9b--------|
--<>9~-----------------|--------------------------------------|
-----------------------|--------------------------------------|
-----------------------|--------------------------------------|

 
---------7~----7~----9b-------------|---------------------------|
--10b-------------------------------|-----------------------10--|
------------------------------------|-------------------11------|
------------------------------------|---------------------------|
------------------------------------|---------------------------|
------------------------------------|---------------------------|


----------------------|--------------------------------------|
--12~-----------------|--------------------------------------|
----------------------|-------7-----7-----7-----9-----9b-----|
----------------------|--------------------------------------|
----------------------|--------------------------------------|
----------------------|--------------------------------------|

 
----------------------------7------------|-----|-----|-----|-----|-----|-----|
-------------------------7-----10--7--7--|-----|-----|-----|-----|-----|-----|
--9br--7-----9----7--9b------------------|-----|-----|-----|-----|-----|-----|
----------9------------------------------|-----|-----|-----|-----|-----|-----|
-----------------------------------------|-----|-----|-----|-----|-----|-----|
-----------------------------------------|-----|-----|-----|-----|-----|-----|


-----|-----|-----|-----|-----|-----|-----------||
-----|-----|-----|-----|-----|-----|-----------||
-----|-----|-----|-----|-----|-----|-----------||
-----|-----|-----|-----|-----|-----|-----------||
-----|-----|-----|-----|-----|-----|-----------||
-----|-----|-----|-----|-----|-----|-----------||










LEAD GUITAR 2


 
E||-------|----------------------|---------------------|-------|-------|-------|
B||-------|------------------6S--|--7~-----------------|-------|-------|-------|
G||-------|------------------7S--|--8~-----------------|-------|-------|-------|
D||-------|----------------------|---------------------|-------|-------|-------|
A||-------|----------------------|---------------------|-------|-------|-------|
E||-------|----------------------|---------------------|-------|-------|-------|


-------|-------|-------|-------|-------|-------|-------|-------|-------|-------|
-------|-------|-------|-------|-------|-------|-------|-------|-------|-------|
-------|-------|-------|-------|-------|-------|-------|-------|-------|-------|
-------|-------|-------|-------|-------|-------|-------|-------|-------|-------|
-------|-------|-------|-------|-------|-------|-------|-------|-------|-------|
-------|-------|-------|-------|-------|-------|-------|-------|-------|-------|

 
-------|-------|-------|----------------------------------------|
-------|-------|-------|----------------------------------------|
-------|-------|-------|------------------7--9b--9--7--9--7-----|
-------|-------|-------|------------7--9---------------------9--|
-------|-------|-------|-------(9)------------------------------|
-------|-------|-------|----------------------------------------|


----------------------|-----------------------|---------------------|
----------------------|-----------------------|---------------------|
--7~------------------|-----------------------|---------------------|
----------------------|--------------x----9~--|--L------------------|
----------------------|--------------7--------|---------------------|
----------------------|--------------7--------|---------------------|

 
-------------------------|----------------------|-------|
--------------10---------|--10------------------|-------|
---------------9br----7--|---9~-----------------|-------|
-------------------------|----------------------|-------|
-------------------------|----------------------|-------|
-------------------------|----------------------|-------|

 
-------------7---------9--7---------|--------------------------------|
----------7-----10--7--------10--7--|--------------------------------|
-------7----------------------------|--9br---7---9----7--------------|
------------------------------------|----------9---------9~----------|
------------------------------------|--------------------------------|
------------------------------------|--------------------------------|

 
-------------------------------|--------------------|
-------------------------------|--------------------|
-------------------------------|--------------------|
--------------------7----------|--------------------|
--------------/(9)-------9--7~-|--L-----------------|
-------------------------------|--------------------|

 
-----------------------------------------|----------------------------------|
-----------------------------------------|----------------------------------|
-----------------------7--9--7--8--------|----------------------------------|
-----------------7--9--------------9--7--|-------7-----7--------------------|
-----(2)s--7--9--------------------------|--9----------------9~-------------|
-----------------------------------------|----------------------------------|


-----|-----|-----|-----|-----|-----|-----|-----|-----|-----|-----|-----|
-----|-----|-----|-----|-----|-----|-----|-----|-----|-----|-----|-----|
-----|-----|-----|-----|-----|-----|-----|-----|-----|-----|-----|-----|
-----|-----|-----|-----|-----|-----|-----|-----|-----|-----|-----|-----|
-----|-----|-----|-----|-----|-----|-----|-----|-----|-----|-----|-----|
-----|-----|-----|-----|-----|-----|-----|-----|-----|-----|-----|-----|

 
-------------------------------|-----------------------------------|
--7-------------------------7--|--L-------9----9---9----7-------7--|
--7-------------------------7--|--L-------9----9b--9----7-------7--|
-------9--7--------------------|---------------------------9-------|
-------------9~----------------|-----------------------------------|
-------------------------------|-----------------------------------|

 
--------------------------------|----------------------------------------|
--L--------------------------7--|--L-------9----9---9------------10------|
--L--------------------------7--|--L-------9----9b--9----7S--11------11--|
-------9--7---------------------|----------------------------------------|
-------------9~-----------------|----------------------------------------|
--------------------------------|----------------------------------------|

 
--------------------------------------------------|
--10------10------10------10------12------12------|
------11------11------11------11------11------11--|
--------------------------------------------------|
--------------------------------------------------|
--------------------------------------------------|

 
----------------------10-----------------|
--12------12------12-------------12------|
------11------11---------------------11--|
-----------------------------------------|
-----------------------------------------|
-----------------------------------------|

 
--12br----10--12-----10~---------------------|
---------------------------------12--10------|
-----------------------------------------11--|
---------------------------------------------|
---------------------------------------------|
---------------------------------------------|

 
------------------10---------------------|
--10------12------------12---------9b----|
------11------11-------------------------|
-----------------------------------------|
-----------------------------------------|
-----------------------------------------|

 
--------7----9------------------------|---------------------------------------|
--L-------------9br--7-----7-----10b--|---L-----10b--10--7-----7--------------|
------------------------9-------------|---------------------9-----7--9-----7--|
--------------------------------------|---------------------------------9-----|
--------------------------------------|---------------------------------------|
--------------------------------------|---------------------------------------|

   
-----------------------------------|-------------------------------------|
-----------------------------------|-------------------------------------|
-----------------------------------|-------------------------------------|
--9-----7-----7-----7-----7-----9--|-------7-----------------------------|
-----------------------------------|----------9--8--7--9--7--5--7--5-----|
-----------------------------------|----------------------------------5--|

 
-----------------------------|-------------------------------|
-----------------------------|--------------10-------L-------|
-----------------------------|---------------9br-----L-7-----|
------------------7-----7--9-|--L-------------------------9--|
---------------9-----9-------|-------------------------------|
--7~-------------------------|-------------------------------|

 
-----------------------|------------------9s--|--7-----------------|----|
-----------------------|------------------9s--|--7-----------------|----|
-----------------------|---------------9------|--------------------|----|
--L--------------------|----------------------|--------------------|----|
-----------------------|----------------------|--------------------|----|
-----------------------|----------------------|--------------------|----|

 
---------------------------------|-------------------------------|----|----|
---------------------------------|-------------------------------|----|----|
---------------------------------|--7----------------------------|----|----|
-----------------7-------9-------|----------9--7-----------------|----|----|
--------------9-------9-------9--|----------------9~-------------|----|----|
---------------------------------|-------------------------------|----|----|

 
----------------------------------------|
---------10b----10b---------10b--10--7--|
----------------------------------------|
----------------------------------------|
----------------------------------------|
----------------------------------------|

 
---------7------------------------------|---------------------|-----------|
------7-----10--7-----7-----------------|---------------------|-----------|
--9b---------------9-----9--7--9--7-----|---------------------|-----------|
-------------------------------------7--|--9~-----------------|-----------|
----------------------------------------|---------------------|-----------|
----------------------------------------|---------------------|-----------|


-----------|-----------|-----------|-----------|-----------|-----------|
-----------|-----------|-----------|-----------|-----------|-----------|
-----------|-----------|-----------|-----------|-----------|-----------|
-----------|-----------|-----------|-----------|-----------|-----------|
-----------|-----------|-----------|-----------|-----------|-----------|
-----------|-----------|-----------|-----------|-----------|-----------|


-----------|-----------|-----------|-----------|
-----------|-----------|-----------|-----------|
-----------|-----------|-----------|-----------|
-----------|-----------|-----------|-----------|
-----------|-----------|-----------|-----------|
-----------|-----------|-----------|-----------|

 
--/11----11------------------------|---------------------------------|
--/12----12----------------9----7--|--L------------------------------|
---------------------------9----7--|--L------------------------------|
-----------------------------------|----------9--7-------------------|
-----------------------------------|----------------9~---------------|
-----------------------------------|---------------------------------|

 
--/11----11----11----11---------10--12br--|
--/12----12----12----12-------------------|
------------------------------------------|
------------------------------------------|
------------------------------------------|
------------------------------------------|

 
---L----10--12--12b----10-------------------|
--------------------------------12------12--|
------------------------------------11------|
--------------------------------------------|
--------------------------------------------|
--------------------------------------------|

 
-----------------------------------------------|
--12~-------------12--14br--12------12---12~---|
--------------13----------------13-------------|
-----------------------------------------------|
-----------------------------------------------|
-----------------------------------------------|

 
-------------------------------12--14------|
-----------12------15b-----------------15--|
-------13------13--------------------------|
-------------------------------------------|
-------------------------------------------|
-------------------------------------------|

 
--12---------------------------------------------|
------14br----12------15------14------12--12~----|
------------------13------13------13-------------|
-------------------------------------------------|
-------------------------------------------------|
-------------------------------------------------|

 
--------------14----14---------------|--14b--------14b----14-------------|
-------14b----------14b~-------------|-----------------------------------|
-------------------------------------|-----------------------------------|
-------------------------------------|-----------------------------------|
-------------------------------------|-----------------------------------|
-------------------------------------|-----------------------------------|

 
--17b------17br----------------------------|
-------------------19--17----19------------|
---------------------------------19----16--|
-------------------------------------------|
-------------------------------------------|
-------------------------------------------|

 
-----------------------------------------|
-------14br------12--14----12--------12--|
-------------------------------13--------|
-----------------------------------------|
-----------------------------------------|
-----------------------------------------|

 
---------------------------------------|--------------------||
------------------12---------10b~------|--L-----------------||
--------11--13-------------------------|--------------------||
--13-----------------------------------|--------------------||
---------------------------------------|--------------------||
---------------------------------------|--------------------||




Tablature Legend
----------------
L - tied note
x - dead note
g - grace note
(n) - ghost note
<> - pinch harmonic
h - hammer on
p - pull off
b - bend
br - bendRelease
pb - preBend
pbr - preBendRelease
brb - bendReleaseBend
S - shift slide
s - legato slide
/ -  slide into from below or out of upwards
\ -  slide into from above or out of downwards
~ - vibrato





Comments


Popular Marshall Tucker Band tabs & chords
Change Is Gonna Come Chords
Dream Lover Chords
Low Down Ways Chords
Ab's Song Tabs
Cant You See Complete Tabs
Fire On The Mountain Intro Tabs
I'll Be Loving You Tabs
Running Like The Wind Tabs
Singing Rhymes Ukulele
Walkin The Streets Alone Ukulele


Song lyrics



↑ Back to top | Tablatures and chords are parodies/interpretations of the original songs. You may use it for private study, scholarship, research or language learning purposes only
© 2014 AZChords.com Contact us | Privacy policy | DMCA | Add/correct tabs | Request tabs | Top 50 tabs