» » »

Marshall Tucker Band, Ab's Song Tabs (ver.1)

Artists:  A B C D E F G H I J K L M N O P Q R S T U V W X Y Z # 

Ab's Song Tabs (ver.1)

Marshall Tucker Band Tabs
 Rating:
4/5 (4 votes)
Ab's Song lessons Tabs too difficult? Try these video lessons and learn fast
                MARSHALL TUCKER BAND - AB'S SONG

TUNING: STANDARD

INTRO

|------------------------------------------------------------|
|--------------------------------------------0---------------|
|---------------0-----0-----0--------------0--------strum G--|
|-------------0-----0-----0------------0h2-------------------|
|-----0--2--3-----2-----0-------0----------------------------|
|--3--------------------------3---3--------------3-----------|


VERSE 1

       If I  die at twenty three,       won't you bury me
 
|---------3-----------0h2------------0-----------------------|
|-----0-----------3--------------1------------1--------------|
|---------------2---2-----------------------0----------------|
|---0---0----0-----------------2---2------2------------------|
|---------------------------3-----------3---------3--2--0----|
|-3----------------------------------------------------------|


                       in the sunshine

|---------0-------------0h2-----------3----------------------|
|-----1-------------3-------------0----------------0---------|
|-----------------2-----------------0------------0-----------|
|-------------2-0-----0----0----0--------------0-------------|
|---0---0------------------------------------2---------------|
|----------------------------3-------------3-----------------|


             Please let me know  that you're still mine

|--------------------------------------------------------3---|
|-----------------------------------------------------0----0-|
|-------------0----------0-----0------0-------------0---0----|
|-----------0----------0-----0------0------------------------|
|---0--2--3----------2-----0------0---------------2----------|
|---------------------------------------------3--------------|


            Though I'm gone, 

|-------------------------------0h2--------3--2--2-----------|
|---------0-----------------3--------3-------------3---------|
|-------0----------0-----------2--------2--0--0--------------|
|-----0------0h2-------0-------------------------------------|
|---2--------------------------------------------------------|
|-3----------------------------------------------------------|           


        My love for you is oh so strong

|------------------------------------------3-----------------|
|--------------------------------------0--------------0------|
|---------0-----0------0-------------0---0----------0--------|
|-------0-----0------0--------2-------------------0----------|
|-0-2-3-----2------0----------------------------2------------|
|--------------------------3-----3------------3--------------|

 

|----------------------------|-------------------0-----------|
|----------------------------|-----------------0-------------|
|--------------0-----0-----0-|---------------0---------------|
|------------0-----0-----0---|-----------0h2-----------------|
|----0--2--3-----2-----0-----|----0--------------------------|
|----------------------------|--3---3---------------3--------|
   [PLAY TWICE FOR VERSE 2]                  [END ON G CHORD]



VERSE 2

And when the grass grows over me
Let me know you still love me
Never put nobody else above me
Then I'll know
My love for you will always grow



************************************

| /   slide up
| \   slide down
| h   hammer-on
| p   pull-off
| ~   vibrato
| <>  pinch harmonic
| b   bend
| pb  pre-bend
| r   release bend

************************************
            
Submit corrections

comments powered by Disqus
↑ Back to top | Marshall Tucker Band Tabs for Ab's Song. Lyrics for acoustic guitar and electric guitar. Tablatures and chords are parodies/interpretations of the original songs. You may use it for private study, scholarship, research or language learning purposes only