» » »

Through With You Bass tabs (ver.1)

Artists:  A B C D E F G H I J K L M N O P Q R S T U V W X Y Z # 

Through With You Bass tabs (ver.1)

Maroon 5
Rating:
0/5 (0 votes)

Hard to play? Try these video lessons and learn fast.
                
Split Into Different 'Chapters'

Standard Tuning


Order:
Intro
Riff
Verse
Riff [Played ONCE This Time]
Chorus
Bridge No.1
Bridge No.2
Chorus
Chorus [2nd Time Through]
Interlude
Chorus
Chorus [2nd Time Through, Using The End Phrase As An Outro, Repeat The Phrase Three Times]

Easy!


Intro:
After Drums; Enter WIth Elec. Guitar:
[Hold The Note]

-----------------------------------|
-----------------------------------|
-----------------------------------|
-6---------------------------------|




Riff:

------------------------------------------------------------|
------------------------------------------------------------|
---------------4------------4----6--4---------4-------------|         Play x2
--6------4-6---6----4h6---6-----------4h6----6-----1-4-1----|




Verse:

------------------------------------------------------------------|
-----8------------------------------------------------------------|
------------------------------6---4-------------------------------|         Play x2
--6---6/-------------------------------6---4----------------------|


Chorus:
[Cut Notes Short]

--------------------------------------------------------------------------|
--------------------------------------------------------------------------|
----------------------------------------6---6---6---6---8---8---11--------|
--6---6---6---6---9---9---9---9-------------------------------------------|

Bridge No.1:
[Slap-Bass May Work Well Here]
[Through The Second Time Shorten The First Note]

-----------------(8)-------(6)----------------------------------------------------------------|
------------------------------------(8)-----(6)-----------------------------------------------|
-------------6-----------4----------------------------------------------                Play--| x2
-6--------------------------------6-------4---------------------------------------------------|


Bridge No.2:
[Once Again - Slap-Bass May Work Well Here]
[Cut Notes Short]

--------------------------------------------------------------------------------------|
--------------------------------------------------------------------------------------|
-------------4-4--------6-6------8-8--------------------4-4-------(5)6-6-6-6-8-11-8/--|
--6-6-------------------------------------------6-6-----------------------------------|

Chorus [2nd time through]:

---------------------------------------------------------------------|
---------------------------------------------------------------------|
-------------------------------5-6--6--6--6--9-6-8-4-6-3-4-0-1-------|
-6--6--6--6-8-9--9--9--9---------------------------------------------|

Interlude:

------------------------------------------------------------------------|
------------------------------------------------------------------------|
------------4h5p4-----7h8p7-/11----6-8-6------------------4-------------|
-5h6p5------------------------------------------9-6-4-6-9--3------------|

------------------------------------------------------------------------|
------------------------------------------------------------------------|
------------4h5p4-----7h8p7-/11----6-8-6------------------4---4---------|
-5h6p5------------------------------------------9-6-4-6-9--3---2---1----|

------------------------------------------------------------------------|
------------------------------------------------------------------------|
---8h9--6h8--4h6--3h4---------------------------------------------------|
------------------------------------------------------------------------|
            
Hard to play? Try these video lessons and learn fast. | Correct




comments powered by Disqus
↑ Back to top | Tablatures and chords are parodies/interpretations of the original songs. You may use it for private study, scholarship, research or language learning purposes only