>
 >
Sunday Morning 5

Sunday Morning 5 Guitar Tabs

Maroon 5 - Sunday Morning 5 chords, tabs, tablatures, lyrics

Guitar lessons | Add/correct | Request | Top 50 tabs Artists:  A B C D E F G H I J K L M N O P Q R S T U V W X Y Z 0-9

Sunday Morning 5 Guitar Tabs – Maroon 5

CD, Sheet music, Poster

Do you like Sunday Morning 5? Share with your friends now
Bass TabsChordsChords v2Chords v3Chords v4Chords v5Drum TabsTabsTabs v2Tabs v3Tabs v4Tabs v5Tabs v6Tabs v7Ukulele
Maroon 5 - Sunday Morning
By TR "Shlacked" Burnuts

Tuning: Standard

This is just the solo, coz the rest is played by a piano. Although the 'solo' is played 
an air instrument, i think a guitar can play this part, or back it up. Sorry if its a 
sketchy.

First "Solo"
e|-8--101112--765--783--782--781--1-3----------------------------------------|
B|---------------------------------------------------------------------------|
G|---------------------------------------------------------------------------|
D|---------------------------------------------------------------------------|
A|---------------------------------------------------------------------------|
E|---------------------------------------------------------------------------|

e|-8--101112--765--783--782--781--1-3----8--9--------------------------------|
B|---------------------------------------------------------------------------|
G|---------------------------------------------------------------------------|
D|---------------------------------------------------------------------------|
A|---------------------------------------------------------------------------|
E|---------------------------------------------------------------------------|

Second "Solo"
e|-8--101112--765--783--782--781--1-3----------------------------------------|
B|---------------------------------------------------------------------------|
G|---------------------------------------------------------------------------|
D|---------------------------------------------------------------------------|
A|---------------------------------------------------------------------------|
E|---------------------------------------------------------------------------|

e|-8--101112--765--7-8-3--7--8--2--7--8--1--1-2-3--8~------------------------|
B|---------------------------------------------------------------------------|
G|---------------------------------------------------------------------------|
D|---------------------------------------------------------------------------|
A|---------------------------------------------------------------------------|
E|---------------------------------------------------------------------------|

| /  slide up
| \  slide down
| h  hammer-on
| p  pull-off
| ~  vibrato
| +  harmonic
| x  Mute note
===============================================================================





Comments


Popular Maroon 5 tabs & chords
Harder To Breathe 5 Bass Tabs
She Will Be Loved Bass Tabs
Doin Dirt Chords
Payphone Chords
Ragdoll 2 Chords
Harder To Breathe Drum Tabs
Moves Like Jagger 3 Tabs
Sunday Morning 7 Tabs
Wake Up Call 1 Tabs
Little Of Your Time Ukulele


Song lyrics



↑ Back to top | Tablatures and chords are parodies/interpretations of the original songs. You may use it for private study, scholarship, research or language learning purposes only
© 2014 AZChords.com Contact us | Privacy policy | DMCA | Add/correct tabs | Request tabs | Top 50 tabs