» » »

Maroon 5, She Will Be Loved Tabs (ver.5)

Artists:  A B C D E F G H I J K L M N O P Q R S T U V W X Y Z # 

She Will Be Loved Tabs (ver.5)

Maroon 5 Tabs
Rating:
0/5 (0 votes)
She Will Be Loved lessons Tabs too difficult? Try these video lessons and learn fast
                Band: Maroon 5

Tuning:  Standard

This is my very first tab...So any corrections are welcome...I tried my best so I hope
this is fine...
I just want to tab my favorite song...btw this is ma first one...rate it please =)  thankzzz

Intro:
e--------------------------------------3--------------------------------|
B-----4--4--4--4-----3--3-----3-----------4--------4-----3--3-----3-----|
G--------5-----5-----3--3--3--------------------4--------3--3--3--------|
D-----------------------------------5--------5--------------------------|
A---3-------------1-----------------------------------1-----------------|
E-----------------------------------------------------------------------|



Verse: Just keep playing
e--------------------------------------3--------------------------------|
B-----4--4--4--4-----3--3-----3-----------4--------4-----3--3-----3-----|
G--------5-----5-----3--3--3--------------------4--------3--3--3--------|4x
D-----------------------------------5--------5--------------------------|
A---3-------------1-----------------------------------1-----------------|
E-----------------------------------------------------------------------|
				or
Just play it like this...It's easier...

    
e----3----1----3----1----|
B----4----3----4----3----|
G----5----3----5----3----|	4x
D----5----3----5----3----|
A----3----1----3----1----|
E----x----x----x----x----|

Beauty queen of only eighteen
She had some trouble with herself
He was always there to help her
She always belonged to someone else

I drove for miles and miles
And wound up at your door
I've had you so many times but somehow
I want more


Chorus: Play this 3x
E-----------------------------------------6---6---6---6---6---6---6---6----|
B-----------------------------------------6---6---6---6---6---6---6---6----|
G----8---8---8---8---8---8---8---8--------7---7---7---7---7---7---7---7----|
D----8---8---8---8---8---8---8---8--------8---8---8---8---8---8---8---8----|
A----6---6---6---6---6---6---6---6--------8---8---8---8---8---8---8---8----|
E----x---x---x---x---x---x---x---x--------6---6---6---6---6---6---6---6----|


E----5---5---5---5---5---5---5---5--------4---4---4---4---4---4---4---4----|
B----4---4---4---4---4---4---4---4--------4---4---4---4---4---4---4---4----|
G----5---5---5---5---5---5---5---5--------5---5---5---5---5---5---5---5----|
D----5---5---5---5---5---5---5---5--------6---6---6---6---6---6---6---6----|
A----3---3---3---3---3---3---3---3--------6---6---6---6---6---6---6---6----|
E----x---x---x---x---x---x---x---x--------4---4---4---4---4---4---4---4----|

I don't mind spending everyday
Out on your corner in the pouring rain
Look for the girl with the broken smile
Ask her if she wants to stay awhile
And she will be loved
She will be loved


Verse2: Just keep playing
e--------------------------------------3--------------------------------|
B-----4--4--4--4-----3--3-----3-----------4--------4-----3--3-----3-----|
G--------5-----5-----3--3--3--------------------4--------3--3--3--------|4x
D-----------------------------------5--------5--------------------------|
A---3-------------1-----------------------------------1-----------------|
E-----------------------------------------------------------------------|
				or
Just play it like this

  
e----3----1----3----1----|
B----4----3----4----3----|
G----5----3----5----3----|	4x
D----5----3----5----3----|
A----3----1----3----1----|
E----x----x----x----x----|

Tap on my window knock on my door
I want to make you feel beautiful
I know I tend to get insecure
It doesn't matter anymore

It's not always rainbows and butterflies
It's compromise that moves us along
My heart is full and my door's always open
You can come anytime you want


Chorus:
E-----------------------------------------6---6---6---6---6---6---6---6----|
B-----------------------------------------6---6---6---6---6---6---6---6----|
G----8---8---8---8---8---8---8---8--------7---7---7---7---7---7---7---7----|
D----8---8---8---8---8---8---8---8--------8---8---8---8---8---8---8---8----|
A----6---6---6---6---6---6---6---6--------8---8---8---8---8---8---8---8----|
E----x---x---x---x---x---x---x---x--------6---6---6---6---6---6---6---6----|


E----5---5---5---5---5---5---5---5--------4---4---4---4---4---4---4---4----|
B----4---4---4---4---4---4---4---4--------4---4---4---4---4---4---4---4----|
G----5---5---5---5---5---5---5---5--------5---5---5---5---5---5---5---5----|
D----5---5---5---5---5---5---5---5--------6---6---6---6---6---6---6---6----|
A----3---3---3---3---3---3---3---3--------6---6---6---6---6---6---6---6----|
E----x---x---x---x---x---x---x---x--------4---4---4---4---4---4---4---4----|

I don't mind spending everyday
Out on your corner in the pouring rain
Look for the girl with the broken smile
Ask her if she wants to stay awhile
And she will be loved
She will be loved

Bridge: It sounds like the verses
					...falls
e----3----1----3----1----|		--4--
B----4----3----4----3----|		--4--
G----5----3----5----3----|	2x	--5--	
D----5----3----5----3----|		--6--
A----3----1----3----1----|		--6--
E----x----x----x----x----|		--4--

I know where you hide
Alone in your car
Know all of the things that make you who you are
I know that goodbye means nothing at all
Comes back and begs me to catch her every time she falls


Verse:
e--------------------------------------3--------------------------------|
B-----4--4--4--4-----3--3-----3-----------4--------4-----3~~------------|
G--------5-----5-----3--3--3--------------------4--------3~~------------|
D-----------------------------------5--------5--------------------------|
A---3-------------1-----------------------------------1-----------------|
E-----------------------------------------------------------------------|

Tap on my window knock on my door
I want to make you feel beautiful



Chorus: Play this 6x until it ends
E-----------------------------------------6---6---6---6---6---6---6---6----|
B-----------------------------------------6---6---6---6---6---6---6---6----|
G----8---8---8---8---8---8---8---8--------7---7---7---7---7---7---7---7----|
D----8---8---8---8---8---8---8---8--------8---8---8---8---8---8---8---8----|
A----6---6---6---6---6---6---6---6--------8---8---8---8---8---8---8---8----|
E----x---x---x---x---x---x---x---x--------6---6---6---6---6---6---6---6----|


E----5---5---5---5---5---5---5---5--------4---4---4---4---4---4---4---4----|
B----4---4---4---4---4---4---4---4--------4---4---4---4---4---4---4---4----|
G----5---5---5---5---5---5---5---5--------5---5---5---5---5---5---5---5----|
D----5---5---5---5---5---5---5---5--------6---6---6---6---6---6---6---6----|
A----3---3---3---3---3---3---3---3--------6---6---6---6---6---6---6---6----|
E----x---x---x---x---x---x---x---x--------4---4---4---4---4---4---4---4----|

I don't mind spending everyday
Out on your corner in the pouring rain
Look for the girl with the broken smile
Ask her if she wants to stay awhile
And she will be loved
She will be loved
And she will be loved
She will be loved
(Please don't try so hard to say goodbye)
yeah eah 
yeah eah yeah eah
oooooooh oooooooh oh oh oh oh 
out in the corner in the pouring rain
(Please don't try so hard to say goodbye)


Any comments, corrections, suggestions, discriminations?
14 yr. old lang poh ako, kaya kung may mali poh, mail nyo lang ako =)
            

comments powered by Disqus
↑ Back to top | Maroon 5 Tabs for She Will Be Loved. Lyrics for acoustic guitar and electric guitar. Tablatures and chords are parodies/interpretations of the original songs. You may use it for private study, scholarship, research or language learning purposes only